MUZBANK


МУЗЫКАЛЬНО-ИНФОРМАЦИОННЫЙ БАНК





MMotorhead • Ridin With The Driver (аккорды и текст - chords & lyrics)


447

Print

Видео «Ridin With The Driver (Motorhead)»

Видео клипы к песне подбираются автоматически сайтом youtube. Возможны некоторые несоответствия клипов песне.

↑ Спрятать рекламу ↑





Tune down to Eb (half a step).
Riff A
e|------------------------------|
B|------------------------------|
G|------------------------------|
D|-7-777710101010105-55555-5555-|
A|-5-55558-8-8-8-8-3-33333-3333-|
E|------------------------------|

Riff B
e|----------------------------------------------------------------------
B|----------------------------------------------------------------------
G|----------------------------------------------------------------------
D|-------------------------12-1212121212-1212121212-1212121212-12121212-
A|-7-77777-77777-77777-777710-1010101010-1010101010-1010101010-10101010-
E|-5-55555-55555-55555-5555---------------------------------------------

Riff C
e|--------------------------|
B|--------------------------|
G|--------------------------|
D|-3-33334-44445-55556-6666-|
A|-1-11112-22223-33334-4444-|
E|--------------------------|

Riff D
e|-------------------------------------------------------|
B|-------------------------------------------------------|
G|-------------------------------------------------------|
D|-9-99999-99999-99999-99999-99999-999910-101010109-9999-|
A|-7-77777-77777-77777-77777-77777-77778--8-8-8-8-7-7777-|
E|-------------------------------------------------------|

Riff E
e|--------------------------------------------------|
B|--------------------------------------------------|
G|--------------------------------------------------|
D|-3-33334-44445-55556-66665-55556-66667-77778-8888-|
A|-1-11112-22223-33334-44443-33334-44445-55556-6666-|
E|--------------------------------------------------|

Riff F
e|-------------------------------|
B|-------------------------------|
G|-------------------------------|
D|-9-999912-121212127-77777-7777-|
A|-7-777710-101010105-55555-5555-|
E|-------------------------------|

Riff G
e|----------------------------------------------------------------------
B|----------------------------------------------------------------------
G|----------------------------------------------------------------------
D|-------------------------14-1414141414-1414141414-1414141414-14141414-
A|-9-99999-99999-99999-999912-1212121212-1212121212-1212121212-12121212-
E|-7-77777-77777-77777-7777---------------------------------------------

Riff H
e|---------------------------------------------------|
B|---------------------------------------------------|
G|---------------------------------------------------|
D|-9-9⁄-------9-9⁄-------9-9⁄-------9-9--------------|
A|-7-7⁄-------7-7⁄-------7-7⁄-------7-7--------------|
E|------------------------------------/--------------|

Тональность:

Это должно быть в ТОП-листе! - Топ-лист композиций



Назад
Рекомендуем посмотреть другие песни исполнителя «Motorhead»:

  • Комменты Fb ()
  • Комменты ВК



Добавить в Избранное Браузера
Сохранить здесь Очистить


x

0


+
-

+
-

-

Авторизация





Зарегистрироваться

M

Дата и время

  • 13:23:47
     

Социальные ссылки


Наши приложения

  • Muzbank App Play Market
  • Muzbank Amazon App