MUZBANK


МУЗЫКАЛЬНО-ИНФОРМАЦИОННЫЙ БАНК





MMuddy Waters • Rollin Stone (аккорды и текст - chords & lyrics)


818

Print

Видео «Rollin Stone (Muddy Waters)»

Видео клипы к песне подбираются автоматически сайтом youtube. Возможны некоторые несоответствия клипов песне.

↑ Спрятать рекламу ↑





Well I wish
E|-------------------------------------------------0----------------------|
B|--------------------------------------------0---------------------------|
G|---------2b3r2p0----------------2b3r2p0-----0tr1------------------------|
D|------2----------2------2----2----------2---2---------------------------|
A|------------------------2-------------------2---------------2----2----2-|
E|-3b4----------------------3b4-------------------------------0----0----0-|
0:00 0:07

I was a Catfish swimming in a oh, deep blue sea
E|-----------------------------------------------------------------------|
B|-----------------------------------------------------------------------|
G|--2b3r2p0----------------------2b3r2p0---------------------------------|
D|----------2--------------------x-------2-------------------------------|
A|------------------2-----2----------------------2-------2------2------2-|
E|------------------0-----0----------------------0--(3)--0--(3)-0--(3)-0-|

I would have all you good looking woman fishin?
E|3-----3----3--3--3----3--0------------------------------------------------|
B|--------------------------------------------------------------------------|
G|--------------------------------------------------------------------------|
D|------------------------------------------------------------------------2-|
A|-----------2--2--2--------------2-----------2-------------2---------------|
E|0-----0----0--0--0----0---------0----(3)----0-----(3)-----0----------3b4--|
0:17 0:22

fishin? after me sho? ?nuff a- after me
E|----------------------------------------------------------------|
B|----------------------------------------------------------------|
G|----------------------------------------------------------------|
D|----------------------2------------------------------------2----|
A|--2---x----2-------------2-------2----x-----2-----------------2-|
E|--0---x----0------3b4----0-------0----x-----0----------3b4----0-|

sho? ?nuff a-after me Oh Lord
E|---------------------------------0-0-0-|
B|---------------------------------------|
G|---------------------------------------|
D|---------------------------2-----------|
A|-------2---x---2-------------2----2----|
E|-------0---x---0---------3---0----0----|

Oh Lord sho? ?nuff
E|--------------------------------------------------------------------------|
B|--------------------------------------------------------------------------|
G|--2b3-3-3rb2p0-----------------2b3-3-3rb2p0---------------2b3-3--3rb2p0---|
D|---------------2---------------2-------------2------------2-------------2-|
A|----------------------2--x-2---------------------2--x--2------------------|
E|----------------------0--x-0---------------------0--x--0------------------|
0:33

E|-----------0--0-------------------0--0-----------0--0-|
B|-----0-----0--0----------------------------------0----|
G|-----0tr1--1--1----2b3-3-3rb2p0---------------0tr1----|
D|-----2-----2--2----2------------2----------/2-2-------|
A|-----2-----2--2-------------------------------2-------|
E|-----0-----0--0-------------------------------0-------|
0:40

The rest of the song is played in the same way, except for a short
instrumental passage, is something like:

E|---------3---3--3---3-3------------3--3---3----3------------3--3--3-3----|
B|------2--------------------------------------2---------2-----------------|
G|---0--2------------------2--0--2---------------------0-2----------2------|
D|---0--2--2--2---2---2-2--2--0--2---2--2---2----2-----0-2----2--2--2-2--2-|
A|---0--0--0--0---0---0-0--0--0--0---0--0---0----0-----0-0----0--0--0-0--0-|
E|-------------------------------------------------------------------------|
2:05
E|-------0----------------------------------0--0--------------0--0-|
B|-------------3b(1/4)-0-3b-0------------------3b--0--3b--3b--3--3-|
G|-----------------------------3-2-0h1-0-------1---1--1---1---1--1-|
D|---0h2-2-------------------------------2-----2-------------------|
A|-----------------------------------------------------------------|
E|-----------------------------------------------------------------|
2:17
E|--2---2-2--2-2-2--2--------------------------------------0--0--------|
B|---------------------------------------------------------0--0--------|
G|------------------------------------------------------0tr1--1--------|
D|--------------------------------2-3-2-3p2-------------2----------...-|
A|--------------------------0---3-----------3-2-1-0--------------------|
E|------0----0--0---0---3b4-------------------------0---0--------------|
2:26

After that it goes back to the main riff,
and Muddy sings the verses for the last time.

The ending is like this:

E D5 E5 E
E|---------------------12-(let ring)-|
B|-----------------------------------|
G|-----------------9-----------------|
D|--2/------7/-----9-----------------|
A|--2/------5/-----7-----------------|
E|--0-------x------------------------|

Тональность:

Это должно быть в ТОП-листе! - Топ-лист композиций



Назад
Рекомендуем посмотреть другие песни исполнителя «Muddy Waters»:

  • Комменты Fb ()
  • Комменты ВК



Добавить в Избранное Браузера
Сохранить здесь Очистить


x

0


+
-

+
-

-

Авторизация





Зарегистрироваться

M

Дата и время

  • 16:24:20
     

Социальные ссылки


Наши приложения

  • Muzbank App Play Market
  • Muzbank Amazon App