MUZBANK


МУЗЫКАЛЬНО-ИНФОРМАЦИОННЫЙ БАНК





MMudvayne • World So Cold (аккорды и текст - chords & lyrics)


760

Print

Видео «World So Cold (Mudvayne)»

Видео клипы к песне подбираются автоматически сайтом youtube. Возможны некоторые несоответствия клипов песне.

↑ Спрятать рекламу ↑






 


World so Cold
                                 Mudvayne
                     The End of all Things to Come
                       Tuning - C,G,C,F (Drop C)
 
 This song kicks ass! This is how i play it and it sounds right to me so fuck
off if you dont like it! Its in order from beginning to end. Listen to the song
for timing.

   Key:
 / or  - slide
 h - Hammer-on
 p - Pull-off
 S - Slap
 P - Pop
                                 Intro
F|------------------------------|-------------------------|
C|-7---9---10---12---10-10---9--|-7---9---10---9---10-9-7-|
G|------------------------------|-------------------------|
C|------------------------------|-------------------------|

F|-------------------------|-------------------5-4-----|
C|----------7---9---10-9-7-|-----------------5-----5---|
G|-8---10------------------|-7---8---10---/7---------5-|
C|-------------------------|---------------------------|

F|-----------------------------|--------------------------|
C|-----------------------------|--------------------------|
G|-----------------------------|------------------3333222-|
C|-3-3---3-3---3-3------//12-|-3-3---3-3---3-3----------|

F|-------------------------------|------------------------------0-|
C|-----------------------0-------|------------------------0-------|
G|-------------------------X---0-|--------------------------------|
C|--0--X-X--2h3p2-0--X-0-----0---|-0--X-X 

Тональность:

Это должно быть в ТОП-листе! - Топ-лист композиций



Назад
Рекомендуем посмотреть другие песни исполнителя «Mudvayne»:

  • Комменты Fb ()
  • Комменты ВК



Добавить в Избранное Браузера
Сохранить здесь Очистить


x

0


+
-

+
-

-

Авторизация





Зарегистрироваться

M

Дата и время

  • 09:47:26
     

Социальные ссылки


Наши приложения

  • Muzbank App Play Market
  • Muzbank Amazon App