MUZBANK


МУЗЫКАЛЬНО-ИНФОРМАЦИОННЫЙ БАНК





MMuse • Ashamed (аккорды и текст - chords & lyrics)


433

Print

Видео «Ashamed (Muse)»

Видео клипы к песне подбираются автоматически сайтом youtube. Возможны некоторые несоответствия клипов песне.

↑ Спрятать рекламу ↑






 


Title: Ashamed
Artist: Muse
Album: Sunburn Single 1
Tabbed by: Putrushkah ()
Tuning: Standard (E A D G B E)
   Key:
/: Slide Up
: Slide Down
B: Bend Full
b: Bend 1/2
r: Release
h: Hammer On
p: Pull Off
v: Vibrato

   Intro
   Gtr. 1(W/dist, pick efx. and Fdbck.)
e|-X-X-X-X-X-X-X-X-X-X-X-X-X-X-X-X-X-X-X-X-X-X-X-X-X-X-X-X-X-X-----||
B|-X-X-X-X-X-X-X-X-X-X-X-X-X-X-X-X-X-X-X-X-X-X-X-X-X-X-X-X-X-X-----||
G|-X-X-X-X-X-X-X-X-X-X-X-X-X-X-X-X-X-X-X-X-X-X-X-X-X-X-X-X-X-X-----||
D|-----------------------------------------------------------------||
A|-----------------------------------------------------------------||
E|-------------------------------------------------------------12-||

e|-12121212-||    |-----||
B|-12121212-||    |-----||
G|----------||X 7 |-----||
D|----------||    |-----||
A|----------||    |-----||
E|----------||    |-12-||

  Gtr. 1       
e|-----2---------2---|----2---------2---|-----5---------5---|----5---------5---|*
B|-----2---------2---|----2---------2---|-----5---------5---|----5---------5---|* N. H.
G|-----2---------2---|----2---------2---|-----5---------5---|----5---------5---|*/
D|-------------------|------------------|-------------------|------------------|
A|--------2--2h3-----|-------2--2h3-----|--------2--2h3-----|-------2--2h3-----|
E|-2-----------------|-2----------------|-2-----------------|-2----------------|

e|-----2---------2---|----2---------2---|-----2---------2---|----2---------2---|*
B|-----2---------2---|----2---------2---|-----2---------2---|----2---------2---|* Gtr. 2 N.H.
G|-----2---------2---|----2---------2---|-----2---------2---|----2---------2---|*/
D|-------------------|------------------|-------------------|------------------|
A|-----0--2--2h3-2-0-|----0--2--2h3-2-0-|-----0--2--2h3-2-0-|----0--2--2h3-2-0-|+ Gtr. 1
E|-2-----------------|-2----------------|-2-----------------|-2----------------|+

e|-----5---------5---|----5---------5---|-----5---------5---|----5---------5---|*
B|-----5---------5---|----5---------5---|-----5---------5---|----5---------5---|* Gtr. 2 N.H.
G|-----5---------5---|----5---------5---|-----5---------5---|----5---------5---|*/
D|-------------------|------------------|-------------------|------------------|
A|-----0--2--2h3-2-0-|----0--2--2h3-2-0-|-----0--2--2h3-2-0-|----0--2--2h3-2-0-|+ Gtr. 1
E|-2-----------------|-2----------------|-2-----------------|-2----------------|+

  Gtr. 2 Tacet
  Gtr. 1 (Long Slide)
e|----------------||
B|----------------||
G|----------------||
D|-4-////16-------||
A|-4-////16-------||
E|-2-////14-------||

  Preverse 1

  Gtr. 1 (W/Trem. Effect and slight dist.)
e|-----------------|-----------------|-----------------|-----------------|
B|-----------------|-----------------|-----------------|-----------------|
G|-----------------|-----------------|-----------------|-----------------|
D|-----------------|-----------------|-----------------|-----------------|
A|-0---------------|-0-----------0-2-|-3-------------0-|-2----0------0---|
E|-----------------|-----------------|-----------------|-----------------|

e|-----------------|-----------------|-----------------|-----------------|
B|-----------------|-----------------|-----------------|-----------------|
G|-----------------|-----------------|-----------------|-----------------|
D|-------------2---|-4---------------|-----------------|-----------------|
A|-0---0---3-------|-------------0-2-|-3---------------|-2----0----------|
E|-----------------|-----------------|-----------------|-----------------|

  Verse 1
                                     |Trem. off and increase dist........|
e|-----------------|-----------------|-----------------|-----------------|
B| 

Тональность:

Это должно быть в ТОП-листе! - Топ-лист композиций



Назад
Рекомендуем посмотреть другие песни исполнителя «Muse»:

  • Комменты Fb ()
  • Комменты ВК



Добавить в Избранное Браузера
Сохранить здесь Очистить


x

0


+
-

+
-

-

Авторизация





Зарегистрироваться

M

Дата и время

  • 04:47:32
     

Социальные ссылки


Наши приложения

  • Muzbank App Play Market
  • Muzbank Amazon App