MUZBANK


МУЗЫКАЛЬНО-ИНФОРМАЦИОННЫЙ БАНК





MMuse • Bliss (аккорды и текст - chords & lyrics)


564

Print

Видео «Bliss (Muse)»

Видео клипы к песне подбираются автоматически сайтом youtube. Возможны некоторые несоответствия клипов песне.

↑ Спрятать рекламу ↑






 


Live Guitar version

Intro
Chords:Cm,Bb,Fm


Cm
e----------11------15--11--------------------
B------13------13----------13----------------
G--12--------------------------12------------
D--------------------------------------------
A--------------------------------------------
E--------------------------------------------

Bb
e----------10------13--10--------------------
B------11------11----------11----------------
G--10--------------------------10------------
D--------------------------------------------
A--------------------------------------------
E--------------------------------------------

Fm
e-----------8------13---8--------------------
B-------9------9------------9----------------
G--10--------------------------10------------
D--------------------------------------------
A--------------------------------------------
E--------------------------------------------

Cm
e----------15------15--11--------------------
B------13------13----------13----------------
G--12--------------------------12------------
D--------------------------------------------
A--------------------------------------------
E--------------------------------------------

Bb
e----------10------13--10--------------------
B------11------11----------11----------------
G--10--------------------------10------------
D--------------------------------------------
A--------------------------------------------
E--------------------------------------------

Fm
e-----------8------13---8--------------------
B-------9------9------------9----------------
G--10--------------------------10------------
D--------------------------------------------
A--------------------------------------------
E--------------------------------------------

Cm
e----------15------15--11------11------------
B------13------13----------13----------------
G--12---------------------------------------- x2
D--------------------------------------------
A--------------------------------------------
E--------------------------------------------

REPEAT THIS PATTERN FOR VERSE

Chorus

C Am G 
peace and joy in your mind 
C Am E
i want the peace and the joy in your mind 
C Am G
give me peace and joy in your mind 
C Am E
i want the peace and the joy in your mind 


Then play the chords of the verse but not the riff once:

Cm, Bb, Fm, Cm, Bb, Fm, Cm

Then back to riff once and then 2nd verse


Chorus

C Am G 
peace and joy in your mind 
C Am E
i want the peace and the joy in your mind 
C Am G
give me peace and joy in your mind 
C Am E
i want the peace and the joy in your mind 


After this comes a solo with tremolo picking which I can 

Тональность:

Это должно быть в ТОП-листе! - Топ-лист композиций



Назад
Рекомендуем посмотреть другие песни исполнителя «Muse»:

  • Комменты Fb ()
  • Комменты ВК



Добавить в Избранное Браузера
Сохранить здесь Очистить


x

0


+
-

+
-

-

Авторизация





Зарегистрироваться

M

Дата и время

  • 06:40:53
     

Социальные ссылки


Наши приложения

  • Muzbank App Play Market
  • Muzbank Amazon App