MUZBANK


МУЗЫКАЛЬНО-ИНФОРМАЦИОННЫЙ БАНК





MMuse • Falling Down (аккорды и текст - chords & lyrics)


1179

Print

Видео «Falling Down (Muse)»

Видео клипы к песне подбираются автоматически сайтом youtube. Возможны некоторые несоответствия клипов песне.

↑ Спрятать рекламу ↑






Verse Riff
E|-----------------------------0---------------------------|
B|-----------------------3-------3-----3-----------------2-|
G|-6---6---6---6/7/6-------2-------2---2---4/5/4-2---2---2-|
D|-7-7---7-5---------5-4-----4-------4-3-3---------4---4-2-|
A|-7-------7-7-------7-----------------------------------0-|
E|---------------------------------------------------------|

E|-------0-----0---|
B|-2-----0---0---0-|
G|---2---1-1-------|
D|-----2-2---------|
A|-------2---------|
E|-------0---------|

E|-----------0-------|
B|-----3-------3---2-|
G|-1-----2-------2-2-|
D|---0-----0-------2-|
A|-----------------0-|
E|-------------------|

Chorus Riff
E|-2-2-2-2-2-2--1-1-1-1-1-1--0-0-0-0-0-0--4-4-4-4-4-4--|
B|-2-2-2-2-2-2--1-1-1-1-1-1--2-2-2-2-2-2--6-6-6-6-6-6--|
G|-2-2-2-2-2-2--2-2-2-2-2-2--2-2-2-2-2-2--6-6-6-6-6-6--|
D|-4-4-4-4-4-4--3-3-3-3-3-3--2-2-2-2-2-2--6-6-6-6-6-6--|
A|-4-4-4-4-4-4--3-3-3-3-3-3--0-0-0-0-0-0--4-4-4-4-4-4--|
E|-2-2-2-2-2-2--1-1-1-1-1-1---------------4-4-4-4-4-4--|

E|-5-5-5-5-5-5--6-6-6-6-6--6-7-7-7-7-7-7-7-|
B|-7-7-7-7-7-7--8-8-8-8-8--8-9-9-9-9-9-9-9-|
G|-7-7-7-7-7-7--8-8-8-8-8--8-9-9-9-9-9-9-9-|
D|-7-7-7-7-7-7--8-8-8-8-8--8-9-9-9-9-9-9-9-|
A|-5-5-5-5-5-5--6-6-6-6-6--6-7-7-7-7-7-7-7-|
E|-5-5-5-5-5-5--6-6-6-6-6--6-7-7-7-7-7-7-7-|

A    A7         D  Dm
I’m falling down
                     A            E
And fifteen thousand people scream
                            D       A
They were all begging for your dream
I’m falling down
Five thousand houses burning down (yeah)
No-one is gonna save this town

F#m
Too late
    F                        A
I already found what I was looking for
C#7          D
You know it wasn’t here
  B7    E7
No it wasn’t here

I was calling your name
But you would never hear me sing
You wouldn’t let me begin
So I’m crawling away
?Cause you broke my heart in two
No, I will not forget you

Too late
I already found what I was looking for
You know it wasn’t you
No, it wasn’t you
Noooooo

Falling away
You would never see me through
No, I could not forget you
Falling down
Five thousand house burning down
No-one is gonna save this town

Too late
I already found what I was looking for
You know it wasn’t you
No, it wasn’t you
No

Falling down
Now the world is upside down
I’m heading straight for the clouds

Тональность:

Это должно быть в ТОП-листе! - Топ-лист композиций



Назад
Рекомендуем посмотреть другие песни исполнителя «Muse»:

  • Комменты Fb ()
  • Комменты ВК



Добавить в Избранное Браузера
Сохранить здесь Очистить


x

0


+
-

+
-

-

Авторизация





Зарегистрироваться

M

Дата и время

  • 13:32:23
     

Социальные ссылки


Наши приложения

  • Muzbank App Play Market
  • Muzbank Amazon App