MUZBANK



A MOST COMPLETE BANK OF MUSIC INFORMATION

МУЗЫКАЛЬНО-ИНФОРМАЦИОННЫЙ БАНК







    MMuse • Fillip (аккорды и текст - chords & lyrics)


    293

    Print

    Видео «Fillip (Muse)»

    Видео клипы к песне подбираются автоматически сайтом youtube. Возможны некоторые несоответствия клипов песне.

    ↑ Спрятать рекламу ↑






     
    
    
    (Standard Tuning) 
    
    E-------------------------------------------------------------------------------- 
    B--0-8-8-8-8-8-------8-8-8-8-8-------8-8-8-8-8-------8-8-8-8-8------------------- 
    G--0-0-0-0-0-0-------0-0-0-0-0-------0-0-0-0-0-------0-0-0-0-0------------------- 
    D--0-----------5-5-5-----------5-5-5-----------5-5-5-----------5-5-5------------- 
    A--0-----------5-5-5-----------5-5-5-----------5-5-5-----------5-5-5------------- 
    E---0-----------3-3-3-----------3-3-3-----------3-3-3-----------3-3-3------------ 
    
    E-------------------------------------------------------------------------------- 
    B--12---------------------------------------------------------------------------- 
    G---0---------------------------------------------------------------------------- 
    D---0---------------------------------------------------------------------------- 
    A---x--x-x-x--x--x-x-x--x--x-x-x--x--x-x-x--x--x-x-x--x--x-x-x--x--x-x-x--x--x--- 
    E--10-10-x-x-10-10-x-x-10-10-x-x-10-10-x-x-10-10-x-x-10-10-x-x-10-10-x-x-10-10--- 
    
    E-------------------------------------------------------------------------------- 
    B--12---------------------------------------------------------------------------- 
    G---0---------------------------------------------------------------------------- 
    D---0---------------------------------------------------------------------------- 
    A---x--x-x-x--x--x-x-x--x--x-x-x--x--x-x-x--x--x-x-x--x--x-x-x--x--x-x-x--x--x--- 
    E--10-10-x-x-10-10-x-x-10-10-x-x-10-10-x-x-10-10-x-x-10-10-x-x-10-10-x-x-10-10---
    
    E---------------------------- 
    B--12------------------------ 
    G---0------------------------ 
    D---0------------------------ 
    A---x--x-x-x--x--x-x-x--x--x- 
    E--10-10-x-x-10-10-x-x-10-10- 
    
    It 

    Тональность:

    Это должно быть в ТОП-листе! - Топ-лист композиций



    Назад
    Рекомендуем посмотреть другие песни исполнителя «Muse»:

    • Комменты Fb ()
    • Комменты ВК



    Добавить в Избранное Браузера
    Сохранить здесь Очистить


    x

    0


    +
    -

    +
    -

    -

    Авторизация





    Зарегистрироваться

    M

    Дата и время

    • 20:24:38
       

    Социальные ссылки


    Наши приложения

    • Muzbank App Play Market
    • Muzbank Amazon App