MUZBANK


МУЗЫКАЛЬНО-ИНФОРМАЦИОННЫЙ БАНК





MMuse • Micro Cuts (аккорды и текст - chords & lyrics)


372

Print

Видео «Micro Cuts (Muse)»

Видео клипы к песне подбираются автоматически сайтом youtube. Возможны некоторые несоответствия клипов песне.

↑ Спрятать рекламу ↑






 


Make sure the low E is tuned down to D

Intro and Verse

e--------------10----------------
B--------10-------10----10-------
G-----10----10-------10---------- x 9
D--12----------------------------
A--------------------------------
D--------------------------------


e--------------10-------------------10----------10----------10--------------
B--------11-------11----11-------10----------10----------11----11----11-----
G-----12----12-------12-------10----------11----------12----------12--------
D--14----------------------12----------12----------12-----------------------
A---------------------------------------------------------------------------
D---------------------------------------------------------------------------

e--------------10----------------------10----------------------10-----------
B--------11-------11----11-------10-------10----10-------10-------10----10--
G-----12----12-------12-------10----10-------10-------10----10-------10-----
D--12----------------------12----------------------12-----------------------
A---------------------------------------------------------------------------
D---------------------------------------------------------------------------

e--------------12----------------------12----------------------10-----------
B--------10-------10----10-------10-------10----12-------10-------10----10--
G-----12----12-------12-------12----12-------12-------10----10-------10-----
D--11----------------------11----------------------12-----------------------
A---------------------------------------------------------------------------
D---------------------------------------------------------------------------

REPEAT THIS PATTERN THROUGH VERSE

hands are red with your blame
megaphone screaming my name
whimpers someone I should 

Тональность:

Это должно быть в ТОП-листе! - Топ-лист композиций



Назад
Рекомендуем посмотреть другие песни исполнителя «Muse»:

  • Комменты Fb ()
  • Комменты ВК



Добавить в Избранное Браузера
Сохранить здесь Очистить


x

0


+
-

+
-

-

Авторизация





Зарегистрироваться

M

Дата и время

  • 05:50:45
     

Социальные ссылки


Наши приложения

  • Muzbank App Play Market
  • Muzbank Amazon App