MUZBANK


МУЗЫКАЛЬНО-ИНФОРМАЦИОННЫЙ БАНК





MMuse • Sober (аккорды и текст - chords & lyrics)


534

Print

Видео «Sober (Muse)»

Видео клипы к песне подбираются автоматически сайтом youtube. Возможны некоторые несоответствия клипов песне.

↑ Спрятать рекламу ↑






Intro:
E|--------------------------------|
B|--------------------------------|
G|--------------------------------|
D|-9-9-9-9-9-9-9-9-9-9-9-9-9-9-9--|
A|--------------------------------|
E|--7-7-7-7-7-7-7-7-7-7-7-7-7-7-7-|

verse:
E|-----------------------------------|
B|-----------------------------------|
G|-----------------------------------|
D|-----------------------------------|
A|-9-9-9-9-9-9-9-9--2-2-2-2-2-2-2-2--|
E|-7-7-7-7-7-7-7-7--1-1-1-1-1-1-1-1--|

E|-----------------------------------|
B|-----------------------------------|
G|-----------------------------------|
D|-----------------------------------|
A|-4-4-4-4-4-4-4-4--6-6-6-6--7-7-7-7-|
E|-2-2-2-2-2-2-2-2--4-4-4-4--5-5-5-5-| x2

pre-chorus:
E|----------------------------------|
B|----------------------------------|
G|----------------------------------|
D|----------------------------------|
A|-5-5-5-5-5-5-5-5-5-5-5-5-5-5-5-5--|
E|-3-3-3-3-3-3-3-3-3-3-3-3-3-3-3-3--|

E|---------------------------------|
B|---------------------------------|
G|---------------------------------|
D|---------------------------------|
A|-6-6-6-6-6-6-6-6-6-6-6-6-6-6-6-6-|
E|-4-4-4-4-4-4-4-4-4-4-4-4-4-4-4-4-|

E|------------------------------------|
B|------------------------------------|
G|------------------------------------|
D|------------------------------------|
A|-5-5-5-5-5-5-5-5-5-5-5-5-5-5-5-5--6-|
E|-3-3-3-3-3-3-3-3-3-3-3-3-3-3-3-3--4-|

Chorus:
E|----------|
B|----------|
G|----------|
D|----------|
A|----------|
E|-4/10-9-8-|

E|-------------------------------------------------------|
B|-------------------------------------------------------|
G|-------------------------------------------------------|
D|-----9---9------11----11--------12------12-------------|
A|-------------------------------------------------------|
E|-7-7---7---9-9-----9-----10-10-----10------10-10-9-8-7-| x7

it burns inside of me……
E|---------------------------------|
B|---------------------------------|
G|---------------------------------|
D|---------------------------------|
A|-9-9-9-9-9-9-9--5-5-5-5--4-4-4-4-|
E|-7-7-7-7-7-7-7--3-3-3-3--2-2-2-2-|

guitar solo:
E|-------------------------------------------|
B|-/12--15-15-15-15-15-15-14--12-16-12-14-12-|
G|-------------------------------------------|
D|-------------------------------------------|
A|-------------------------------------------|
E|-------------------------------------------|
go back and play the verse 4 times, play the pre-chorus and
chorus again.

Middle section:
E|----------------------------|-----|
B|----------------------------|-----|
G|--------7^9-7---------------|-----|
D|----------------7-7-7-6^7-6-|-----|
A|----------------------------|-----|
E|-7-7-7----------------------|  x4-|

E|---------------------------------------|
B|---------------------------------------|
G|---------------------------------------|
D|---------------------------------------|
A|-9-9-9-9-9-9-9-9-11-11-11-11-11-11-11--|
E|-7-7-7-7-7-7-7-7--9--9--9--9--9--9--9--|

E|----------------------------------|
B|----------------------------------|
G|----------------------------------|
D|----------------------------------|
A|-5-5-5-5-5-5-5-5--4-4-4-4-4-4-4-4-|
E|-3-3-3-3-3-3-3-3--2-2-2-2-2-2-2-2-|
play the verse twice, pre-chorus and chorus to finish.

Тональность:

Это должно быть в ТОП-листе! - Топ-лист композиций



Назад
Рекомендуем посмотреть другие песни исполнителя «Muse»:

  • Комменты Fb ()
  • Комменты ВК



Добавить в Избранное Браузера
Сохранить здесь Очистить


x

0


+
-

+
-

-

Авторизация





Зарегистрироваться

M

Дата и время

  • 07:11:00
     

Социальные ссылки


Наши приложения

  • Muzbank App Play Market
  • Muzbank Amazon App