MUZBANK


МУЗЫКАЛЬНО-ИНФОРМАЦИОННЫЙ БАНК





MMuse • Space Dementia (аккорды и текст - chords & lyrics)


580

Print

Видео «Space Dementia (Muse)»

Видео клипы к песне подбираются автоматически сайтом youtube. Возможны некоторые несоответствия клипов песне.

↑ Спрятать рекламу ↑





Вступление Intro:(reverb)
E|-0--0--2--2--0--0--2---2--0-|
B|-0--1--2--4--0--1--2---2--1-|
G|-0--0--3--2--0--0--3---3--0-|
D|-2--2--4--4--2--2--2---3--2-|
A|-2--3--4--2--2--3--4---4--3-|
E|-0--3--2--x--0--3--2---2--3-|


Куплет Verse 1:(clean)
E|--0------------------x-|
B|--0------------------1-|
G|--0------------------2-|
D|--4------------------4-|
A|--2------------------x-|
E|--0------------------x-|
   Mmm, Height is the one for me

E|--------------0-|
B|--------------0-|
G|--------------0-|
D|--------------2-|
A|--------------2-|
E|--------------3-|
   It gives me all I need

E|----------0----------------------2-----2-----2-------2-|
B|----------1----------------------3-----2-----3-------0-|
G|----------2----------------------4-----3-----4-------2-|
D|----------2----------------------4-----4-----4-------1-|
A|----------0----------------------2-----4-----2-------x-|
E|----------x----------------------x-----2-----x-------x-|
   Helps me co-exist with the chill               Ooh


Куплет Verse 2:
E|-0-|
B|-0-|
G|-0-|
D|-4-|
A|-2-|
E|-0-|
   You make me sick

E|------------x-|
B|------------1-|
G|------------2-|
D|------------4-|
A|------------x-|
E|------------x-|
   Because I adore you so

E|----------------0-|
B|----------------0-|
G|----------------0-|
D|----------------2-|
A|----------------2-|
E|----------------3-|
   I love all the dirty tricks

E|-------------0------------------2-----2-----2----2-|
B|-------------1------------------3-----2-----3----0-|
G|-------------2------------------4-----3-----4----2-|
D|-------------2------------------4-----4-----4----1-|
A|-------------0------------------2-----4-----2----x-|
E|-------------x------------------x-----2-----x----x-|
   and twisted games you play on me                Ooh


Припев Chorus 1
E|-0--x--1--x--0--2-|
B|-0--4--3--2--1--4-|
G|-0--4--2--2--2--2-|
D|-2--4--0--2--2--4-|
A|-2--2--x--4--3--2-|
E|-0--x--x--x--x--x-|

E|-0-----0----0---------2----2-|
B|-0-----0----2---------2----3-|
G|-1-----2----0---------2----4-|
D|-2-----2----2---------2----4-|
A|-2-----0----0---------0----2-|
E|-0-----0----x---------x----x-|
   Space de   meneia in your eyes

E|-1---1-----------0----2--------x--x-|
B|-3---0-----------1----2--------4--3-|
G|-2---0-----------0----3--------4--2-|
D|-0---0-----------2----2--------4--0-|
A|-x---2-----------3----4--------2--x-|
E|-x---3-----------3----2--------x--x-|
   and peace will arise and tear us apart


E|-0--------------1------2----------x---2-|
B|-0--------------1------2----------x---4-|
G|-1--------------2------3----------4---2-|
D|-2--------------3------2----------4---4-|
A|-2--------------3------4----------2---2-|
E|-0--------------1------2----------x---x-|
      and make us meaningless again


Куплет Verse 3:
E|-0-|
B|-0-|
G|-0-|
D|-4-|
A|-2-|
E|-0-|
   You?ll make us wanna die

E|--------------x-|
B|--------------1-|
G|--------------2-|
D|--------------4-|
A|--------------x-|
E|--------------x-|
   I?d cut your name in my heart

E|--------------------0-|
B|--------------------0-|
G|--------------------0-|
D|--------------------2-|
A|--------------------2-|
E|--------------------3-|
   We?ll destroy this world for you

E|------------0-|
B|------------1-|
G|------------2-|
D|------------2-|
A|------------0-|
E|------------x-|
   I know you want me to

E|-----------2-------2------2------2-|
B|-----------3-------2------3------0-|
G|-----------4-------3------4------2-|
D|-----------4-------4------4------1-|
A|-----------2-------4------2------x-|
E|-----------x-------2------x------x-|
   Feel your pain

Припев chorus 1

Завершение Outro:
E|-0--0--2--2--0--0--2--x--0-|
B|-0--1--2--4--0--1--2--4--0-|
G|-0--0--3--2--0--0--3--4--0-|
D|-2--2--2--4--2--2--2--4--2-|
A|-2--3--4--2--2--3--4--2--2-|
E|-0--3--2--x--0--3--2--x--0-|

Тональность:

Это должно быть в ТОП-листе! - Топ-лист композиций



Назад
Рекомендуем посмотреть другие песни исполнителя «Muse»:

  • Комменты Fb ()
  • Комменты ВК



Добавить в Избранное Браузера
Сохранить здесь Очистить


x

0


+
-

+
-

-

Авторизация





Зарегистрироваться

M

Дата и время

  • 02:36:16
     

Социальные ссылки


Наши приложения

  • Muzbank App Play Market
  • Muzbank Amazon App