MUZBANK


МУЗЫКАЛЬНО-ИНФОРМАЦИОННЫЙ БАНК





MMuse • Time Is Running Out (аккорды и текст - chords & lyrics)


420

Print

Видео «Time Is Running Out (Muse)»

Видео клипы к песне подбираются автоматически сайтом youtube. Возможны некоторые несоответствия клипов песне.

↑ Спрятать рекламу ↑






 


High bit in verse
e--12-------11------------12-13-10-
B-----13-10----13-10-9-12----------
G----------------------------------
D----------------------------------
A----------------------------------
E----------------------------------

Pre chorus
e------------------------
B------------------------
G------------------------
D--77777777-55555555-----
A--77777777-55555555-----
E--55555555-33333333-----   x4 


e----------------
B----------------
G-12--10---9-----
D----------------
A-10--8----7-----
E----------------
  

Chorus
e--1--3---5--3----
B--1--3---5--3----
G--2--4---6--5----
D--3--5---7--5----
A--3--5---7--3----
E--1--3---5-------  X2

Last line of chorus)
e------------------
B------------------
G------------------
D------------------
A-----3--------5---
E-1-1---1--3-3---3-

Riff before 2nd verse
e--------------------------
B--------------------------
G-9------8----------9-10-7-
D---10-7---10-7-6-9--------
A--------------------------
E--------------------------  X1


Verse 2
e------------------------------------------------
B------------------------------------------------
G--2-2-5-2---4-4-2-4-------9---------------------
D--2-2-5-2---4-4-2-4---2-2-9-2-------------------
A--0-0-3-0---2-2-0-2---2-2-7-2-------3--------5--
E----------------------0-0---0---1-1---1--3-3---3  X3


Pre Chorus - 
e-------------------------------------------------
B-------------------------------------------------
G--14-14-14-14-14-14-14-14-12-12-12-12-12-12-12-12
D-------------------------------------------------
A--12-12-12-12-12-12-12-12-10-10-10-10-10-10-10-10
E-------------------------------------------------  X4

e----------------
B----------------
G-12--10---9-----
D----------------
A-10--8----7-----
E----------------
  


Chorus



E--1-----0--------                e-------
B--1-----0--------                B-------
G--2-----2--------                G---1---
D--3-----2--------                D---2---
A--3-----0--------                A---2---
E--1--------------      X3        E---0---
   O-o-o yeah yeah yeah



e--12--11--10--8--
B--13--13--12--8--
G--14--14--13--7--
D-----------------
A-----------------
E-----------------


Pre Chorus


Chorus


e--------------
B--------------
G-9--8--7--5---
D--------------
A--------------
E--------------


I think I 

Тональность:

Это должно быть в ТОП-листе! - Топ-лист композиций



Назад
Рекомендуем посмотреть другие песни исполнителя «Muse»:

  • Комменты Fb ()
  • Комменты ВК



Добавить в Избранное Браузера
Сохранить здесь Очистить


x

0


+
-

+
-

-

Авторизация





Зарегистрироваться

M

Дата и время

  • 13:54:02
     

Социальные ссылки


Наши приложения

  • Muzbank App Play Market
  • Muzbank Amazon App