MUZBANK


МУЗЫКАЛЬНО-ИНФОРМАЦИОННЫЙ БАНК





MMxpx • Sorry So Sorry (аккорды и текст - chords & lyrics)


427

Print

Видео «Sorry So Sorry (Mxpx)»

Видео клипы к песне подбираются автоматически сайтом youtube. Возможны некоторые несоответствия клипов песне.

↑ Спрятать рекламу ↑





 


Song: Sorry, so Sorry
Artist: MxPx
Album: Life in General
Tabbed By: Paul Assaad (pxpx47@hotmail.com)

This is my favorite MxPx song of all time. Enjoy!

After Guitar Intro:                       (1)
G|----------------------------------------
D|--------2-------------------------------
A|--2--2----------------------------------
E|----------------------------------------


Verse:                                    (2)
G|----------------------------------------
D|--2>------2>----------2>----------------
A|------0>------2>--0>------2>------------
E|----------------------------------------


Chorus Part 1:  (Repeat 1st part)         (3)
G|--------------*-------------------------
D|--------------*-------------------------
A|--0--2--4--0--*--0>--2>-----------------
E|--------------*-------------------------


Bridge:                                   (4)
G|----------------------------------------
D|--2>------------------------------------
A|----------------------------------------
E|----------------------------------------


Chorus Part 2: (Slow Part)                (5)
G|----------------------------------------
D|----------------------------------------
A|--4-----4--0-----4--0-----4 

Тональность:

Это должно быть в ТОП-листе! - Топ-лист композиций



Назад
Рекомендуем посмотреть другие песни исполнителя «Mxpx»:

  • Комменты Fb ()
  • Комменты ВК



Добавить в Избранное Браузера
Сохранить здесь Очистить


x

0


+
-

+
-

-

Авторизация





Зарегистрироваться

M

Дата и время

  • 01:11:49
     

Социальные ссылки


Наши приложения

  • Muzbank App Play Market
  • Muzbank Amazon App