MUZBANK


МУЗЫКАЛЬНО-ИНФОРМАЦИОННЫЙ БАНК





ННародные песни • Ой, да не вечер (аккорды и текст - chords & lyrics)


1016

Print

Видео «Ой, да не вечер (Народные песни)»

Видео клипы к песне подбираются автоматически сайтом youtube. Возможны некоторые несоответствия клипов песне.

↑ Спрятать рекламу ↑





Am                     E7
Ой, да не вечер, да не вечер.
Am   Am/C  G     C     G
Мне малым-мало спалось.
  C                G E7
Мне малым-мало спалось,
Am          Dm6   E7  Am  G
Ой, да во сне привиделось.
Мне малым-мало спалось,
Ой, да во сне привиделось.

Мне во сне привиделось
Будто конь мой вороной
Разыгрался, расплясался,
Разрезвился подо мной.

Ой, налетели ветры злые
Да с восточной стороны
И сорвали черну шапку
С моей буйной головы.

А есаул догадлив был,
Он сумел сон мой разгадать.
"Ой, пропадет", - он говорил мне, -
"Твоя буйна голова."







/Acoustic Guitar/
     Е  Е  Е  Е  Е  Е  Е  Е     Е  Е  Е  Е  Е  Е  Е  Е   
Е||--0-----1--0--------------|--------0-----------------|
B||-----------------1--0-----|-----0-----------3--1--0--|
G||--------2-----2--------2--|--1-----------------1-----|
D||-----2--------------2-----|--------2-----------------|
A||--0-----------0-----------|-----------2--------------|
Е||--------------------------|--0-----------0-----------|


  Е  Е  Е  Е  Е  Е  Е  Е     Е  Е  Е  S  S Е  Е  Е  Е   
--0-----1--0--------0-----|--0--------1p-0-------------|
-----------------------3--|----------------3-----------|
--------2-----2--2--------|--------0-------------0-----|
-----2--------------------|-----2-------------0-----0--|
--0-----------3-----------|--3-------------------------|
--------------------3-----|----------------3-----------|


                ^                                       
    Е  Е  Е  Е  Е  Е  Е  Е     Е  Е  Е  Е  Е  Е  Е  Е   
|------------0--3--0--------|--3-----------4-----------|
|---1-----------1-----3--1--|-----------0-----------3--|
|*--------0-----0-----------|--------0-----------4-----|
|*-----2--------2-----------|-----0-----------2--------|
|---3-----------------3-----|--------------------------|
|---------------------------|--3-----------0-----------|


  Е  Е  Е  Е  Е  Е  Е  Е     Е  Е  Е  S  S Е  Е  Е  Е     
--5-----0--3--3--1--0-----|--5--------7p-5-3------------||
--------------0-----0--3--|--------5----------------0---||
-----5--------2-----1-----|-----5----------------0-----*||
--------------0-----------|-------------------0--------*||
--0-----------------------|--0--------------------------||
--------------------0-----|----------------3------------||


  Е  Е  Е  Е  Н          
-----------------------||
-----------------------||
--2--------------------||
-----2-----2-----------||
--0-----3-----0--------||
-----------------------||







/BASS Guitar/

     Q    Е  Е  Е  Е  Е  Е     Q    Q    Е  Е  Е  Е     Q    Е  Е  Е  Е  Е  Е   
G||-------------------------|------------------------|-------------------------|
D||-------------------------|------------------------|-------------------------|
A||--0----0--2--3--2--0--2--|--7------------5--3--2--|--0----0--2--3--2-----2--|
Е||-------------------------|-------0----------------|-------------------3-----|


  Q    Е  S S Н             Q    Е  Е  Q    Е  Е     Q    Q    Q    Q     
-----------------------||-------------------------|----------------------|
-----------------------||*----------2--5----------|----------------------|
--3-------3-2----------||*--3----3----------3--2--|----------------------|
--------------3--------||-------------------------|--3----3----0----0----|


  Q    Е  Е  Е  Е  Е  Е     Q    Q    Q    Q         Q    Н        Q      
-------------------------|-----------------------||---------------------||
----------5--------2-----|----------------------*||---------------------||
--0----7-----5--------5--|--0-------------------*||--0------------------||
----------------0--------|------------3----------||---------------------||

Тональность:

Это должно быть в ТОП-листе! - Топ-лист композиций



Назад
Рекомендуем посмотреть другие песни исполнителя «Народные песни»:

  • Комменты Fb ()
  • Комменты ВК



Добавить в Избранное Браузера
Сохранить здесь Очистить


x

0


+
-

+
-

-

Авторизация





Зарегистрироваться

M

Дата и время

  • 11:50:42
     

Социальные ссылки


Наши приложения

  • Muzbank App Play Market
  • Muzbank Amazon App