MUZBANK


МУЗЫКАЛЬНО-ИНФОРМАЦИОННЫЙ БАНК





ННаутилус Помпилиус • Хлоп-Хлоп 2 (аккорды и текст - chords & lyrics)


673

Print

Видео «Хлоп-Хлоп 2 (Наутилус Помпилиус)»

Видео клипы к песне подбираются автоматически сайтом youtube. Возможны некоторые несоответствия клипов песне.

↑ Спрятать рекламу ↑





E|-------------------------------------------------------------|
B|----1-------------------------------1------------------------|
G|2-2---0-------2---------2-----1-2-2---0-------2--------2----1|
D|--------3-0-3---0-0-3-2---2-4-----------3-0-3---0-0-3-2-2-4--|
A|-------------------------------------------------------------|
E|-------------------------------------------------------------|

E|-------------------------------------------------------------|
B|---1------------------------------1--------------------------|
G|2-2--0-------2---------2-----1-2-2--0-------2---------2-----1|
D|-------3-0-3---0-0-3-2---2-4----------3-0-3---0-0-3-2---2-4--|
A|-------------------------------------------------------------|
E|-------------------------------------------------------------|

E|-------------------------------------------------------------|
B|----------------------------------------0---------0-1-0------|
G|----2-3-----2-2-3---1-2-----1-1-2-----3-------3-3-------2-0--|
D|2-3-----2-3------1-2----1-2-------2-3-----2-3---------------3|
A|-------------------------------------------------------------|
E|-------------------------------------------------------------|

E|-------------------------------------------------------------|
B|------------------------------------------------0-------0-1-0|
G|----------2-3-----2-2-3-----1-2-----1-1-2-----3------3-3-----|
D|2-0---2-3-----2-3-------1-2-----1-2-------2-3-----2-3--------|
A|----3--------------------------------------------------------|
E|-------------------------------------------------------------|
        E
E|----------------|
B|----------------|
G|-2-0------------|
D|-----3-2-0---2--|
A|-----------3-2--|
E|----------------|

Am         F
нас выращивали денно
Dm        Am
мы гороховые зерна
Am             F
нас теперь собрали вместе
Dm             Am
можно брать и можно есть нас
     Dm            Am
но знайте и запоминайте:
E                Am
мы ребята не зазнайки
Dm                   Am
нас растят и нас же сушат
     E                   Am    E
не для того чтоб только кушать

Am            F
из нас выращивают смену
  Dm           Am
для того чтоб бить об стену
Am         F
вас отваривали в супе
  Dm         Am    E
съели вас теперь вы трупы


кто сказал что бесполезно
биться головой о стену?
хлоп на лоб глаза полезли
лоб становится кременным

зерна отольются в пули
пули отольются в гири
таким ударным инструментом
мы пробьем все стены в мире

с нас теперь не сваришь кашу
стали сталью мышцы наши
тренируйся лбом о стену
вырастим крутую смену!

обращайтесь гири в камни
камни обращайтесь в стены
стены ограждают поле
в поле зреет урожай!

здесь выращивают денно
ах гороховые зерна
собирают зерна вместе
можно брать и можно есть их

хвать летит над полем семя
здраствуй нынешнее племя
хлоп стучит горох о стену
вот мы вырастили смену

зерна отольются в пули
пули отольются в гири
таким ударным инструментом
мы пробьем все стены в мире
обращайтесь гири в камни
камни обращайтесь в стены
стены ограждают поле
в поле зреет урожа-я-я-я-я-я-я-я-яй...

Бум- ага, Бум- ага
Бум- ага, Бум- ага
ХЛОП!

Тональность:

Это должно быть в ТОП-листе! - Топ-лист композиций



Назад
Рекомендуем посмотреть другие песни исполнителя «Наутилус Помпилиус»:

  • Комменты Fb ()
  • Комменты ВК



Добавить в Избранное Браузера
Сохранить здесь Очистить


x

0


+
-

+
-

-

Авторизация





Зарегистрироваться

M

Дата и время

  • 13:54:44
     

Социальные ссылки


Наши приложения

  • Muzbank App Play Market
  • Muzbank Amazon App