MUZBANK


МУЗЫКАЛЬНО-ИНФОРМАЦИОННЫЙ БАНК





NNazareth • Changin Times (аккорды и текст - chords & lyrics)


599

Print

Видео «Changin Times (Nazareth)»

Видео клипы к песне подбираются автоматически сайтом youtube. Возможны некоторые несоответствия клипов песне.

↑ Спрятать рекламу ↑





Intro/Main Riff:
e -------------|-------------|-------------------------|
B -------------|-------------|-------------------------|
G -------------|-------------|-------------------------|
D -7-5---------|-7-5---------|-7-5-7-5-7h8-7p5---------|
A -----7-5-3---|-----7-5-3---|-----------------7p5p3---|
E -----------5-|-----------5-|-----------------------5-|

Riff 2
e -------------|-------------|-------------------------|
B -------------|-------------|-------------------------|
G -7-5---------|-7-5---------|-7-5-7-5-7h8-7p5---------|
D -----7-5-3---|-----7-5-3---|-----------------7p5p3---|
A -----------5-|-----------5-|-----------------------5-|
E -------------|-------------|-------------------------|

Riff 3
e -------------|
B -------------|
G -------------|
D -7-5---------|
A -----7-5-3---|
E -----------5-|

Riff 4
e ----------------------|
B ----------------------|
G ----------------------|
D ---------7xx7xx7xx7-7-|
A -----3---7xx7xx7xx7-7-|
E -3h5---5-5xx5xx5xx5-0-|

Riff 5
e ----------------------|
B ----------------------|
G ---------7xx7xx7xx7-7-|
D -----3---7xx7xx7xx7-7-|
A -3h5---5-5xx5xx5xx5-0-|
E ----------------------|

Riff 6
e --------|
B --------|
G -2--5-3-|
D -2--5-3-|
A -0--3-1-|
E --------|

Riff 7
e ---------------|
B ---------------|
G ---------------|
D -2xx2xx2x2-----|
A -2xx2xx2x2---3-|
E -0xx0xx0x0-5---|

Riff 8
e -------|
B -------|
G -------|
D -2-2-2-|
A -2-2-2-|
E -0-0-0-|

Solo
e -1h3p1h3p1h3p1h3p1h3p1h3p1h3p1h3ph13p1h3p1h3-|
B ---------------------------------------------|
G ---------------------------------------------|
D ---------------------------------------------|
A ---------------------------------------------|
E ---------------------------------------------|

e ---------------------------------------------|
B -8p7p5-8p7p5-8p7p5-8p7p5-8p7p5-8p7p5-8-8b10--|
G ---------------------------------------------|
D ---------------------------------------------|
A ---------------------------------------------|
E ---------------------------------------------|

e ---------------------------------------------|
B -8p7p5-8p7p5-8p7p5-8p7p5-8p7p5-8p7p5-8-8b10--|
G ---------------------------------------------|
D ---------------------------------------------|
A ---------------------------------------------|
E ---------------------------------------------|

e -------------------------------------------------|
B -------------------------------------------------|
G ---------7b9-7-------------------7b9-7-----------|
D -5-7-9-9-------9-7-5-7b9-5-7-9-9-------9-7-5-7b9-|
A -------------------------------------------------|
E -------------------------------------------------|

e ---------------------------------------------------------|
B ---------------------------------------------------------|
G -9b11-7-11b13-10-7-9-7-9-5b7-9b11-7-11b13-10-7-9-7-9-5b7-|
D ---------------------------------------------------------|
A ---------------------------------------------------------|
E ---------------------------------------------------------|

e ----------------------------------------------------------------|
B ----------------------------------------------------12-12p10h12-|
G -9b11-7---7---7-7p5p3-9b11-7-7p5p3-7-7-9b11-9b11-7--------------|
D --------9---9---------------------------------------------------|
A ----------------------------------------------------------------|
E ----------------------------------------------------------------|

e -------------------------------------------|
B -12b14-12b14-12b14-12b14-10-12-10-10-12-12-| Fade Out
G -------------------------------------------|
D -------------------------------------------|
A -------------------------------------------|
E -------------------------------------------|

Song Progression:

Main Riff x2
Riff 3
Riff 3 x2
Main Riff
Riff 2
Riff 3
Riff 3 x2
Main Riff
Riff 2
Riff 4 x4
Riff 5 x4

Тональность:

Это должно быть в ТОП-листе! - Топ-лист композиций



Назад
Рекомендуем посмотреть другие песни исполнителя «Nazareth»:

  • Комменты Fb ()
  • Комменты ВК



Добавить в Избранное Браузера
Сохранить здесь Очистить


x

0


+
-

+
-

-

Авторизация





Зарегистрироваться

M

Дата и время

  • 18:15:34
     

Социальные ссылки


Наши приложения

  • Muzbank App Play Market
  • Muzbank Amazon App