MUZBANK


МУЗЫКАЛЬНО-ИНФОРМАЦИОННЫЙ БАНК





NNazareth • Razamanaz (аккорды и текст - chords & lyrics)


967

Print

Видео «Razamanaz (Nazareth)»

Видео клипы к песне подбираются автоматически сайтом youtube. Возможны некоторые несоответствия клипов песне.

↑ Спрятать рекламу ↑





g--------------------------------------------------------------------|
d-------------------------------------------0---2--------------------|
a--------------------------------------------------------------------|
e-----3-----5---5-----3--3----3---4---5------------------------------|

(3x)

g--------------------------------------------------------------------|
d----------------------------------------0---2-----------------------|
a---------------------------------------------------0----------------|
e---5---5-----3---3------3----4----5---------------------------------|

stop playin while lyrics are on on 3 time dont play the open a

(3x)
g--|----------------------------|--------------------------------------|
d--|----------------------------|--------------------------------------|
a--|-5--5------------5-5---------|-------------------------------------|
e--|---------2--2-----------2--2--|---4--4-----3--3---22---------------|

last time play through to end

first time 2nd time
g--/-------------------------------------------------⁄----------------------|
d--|-.-----------------------------------------------|----------------------|
a--|-.----------------------------------------------|--------2---3--4-------|
e--⁄-----5-5----5---5----5--3----5---5-5---5--5-3--/-----5------------------|

4x
g--|---------------------------⁄----------------------------------------|
d--|----------------------------⁄------2--2-----------------------------|
a--|-5--5------------5--5--------⁄-------------4--4----2--2-------------|
e--⁄---------2--2-----------2-2--⁄--------------------------------------|

g-----------------------------------------------------------------|
d---2-2-----------------------------------------------------------|
a---------4--4---2--2---------------------------------------------|
e-----------------------4--4--------------------------------------|

2 x 2x
g--⁄-----------------------------------------/---------------------------------|
d--⁄----------------------------------0---2-/-0------------------------0--2----|
a--⁄----------------------------------------/----------------------------------|
e--⁄---5----5--3--3-----3--4--5------------/----5---5--3-3---3--4--5-----------|

3x
g--------------------------------------/----------------------------|
d--------------------------------------/----2--2--------------------|
s--5---5--------------5---5-----------/-----------4-4--2--2---4--4--|
e------------2----2-----------2---2---/-----------------------------|

Тональность:

Это должно быть в ТОП-листе! - Топ-лист композиций



Назад
Рекомендуем посмотреть другие песни исполнителя «Nazareth»:

  • Комменты Fb ()
  • Комменты ВК



Добавить в Избранное Браузера
Сохранить здесь Очистить


x

0


+
-

+
-

-

Авторизация





Зарегистрироваться

M

Дата и время

  • 12:09:33
     

Социальные ссылки


Наши приложения

  • Muzbank App Play Market
  • Muzbank Amazon App