MUZBANK


МУЗЫКАЛЬНО-ИНФОРМАЦИОННЫЙ БАНК





NNekromantix • Haunted Cathouse (аккорды и текст - chords & lyrics)


733

Print

Видео «Haunted Cathouse (Nekromantix)»

Видео клипы к песне подбираются автоматически сайтом youtube. Возможны некоторые несоответствия клипов песне.

↑ Спрятать рекламу ↑






 


Nekromantix - Haunted Cathouse
Album: Return of the Loving Dead 

Standard Tuning

Intro:
                                   
E|--------------|--2--1--0-----|--2--1--0-----|--------------|
B|--------------|--2--2--2-----|--2--2--2-----|--------------|
G|--------------|--------------|--------------|--------------|
D|--------------|--------------|--------------|--------------|
A|--------------|--------------|--------------|--------------|
E|--0--1--2--3--|--------------|--------------|--0--1--2--3--|

E|--2--1--0-----|--------------|--------------|--------------|
B|--2--2--2-----|--------------|--------------|--------------|
G|--------------|--------------|--------------|--------------|
D|--------------|--777777------|--------------|--------------|
A|--------------|--555555------|--5- 

Тональность:

Это должно быть в ТОП-листе! - Топ-лист композиций



Назад
Рекомендуем посмотреть другие песни исполнителя «Nekromantix»:

  • Комменты Fb ()
  • Комменты ВК



Добавить в Избранное Браузера
Сохранить здесь Очистить


x

0


+
-

+
-

-

Авторизация





Зарегистрироваться

M

Дата и время

  • 07:11:32
     

Социальные ссылки


Наши приложения

  • Muzbank App Play Market
  • Muzbank Amazon App