MUZBANK


МУЗЫКАЛЬНО-ИНФОРМАЦИОННЫЙ БАНК





NNelson Willie • Ghost Riders (аккорды и текст - chords & lyrics)


499

Print

Видео «Ghost Riders (Nelson Willie)»

Видео клипы к песне подбираются автоматически сайтом youtube. Возможны некоторые несоответствия клипов песне.

↑ Спрятать рекламу ↑





 

  

------------------------------------------------------
-1-----1--1-------1--1-----1--1--------1--------1-----
-2----2---2------2---2----2---2-------2--------2------
-2---2----2-----2----2---2----2------2--------2-------
0--------0----------0--------0-----0----0-2-3---------
---0----------0---------0------0-3--------------------

------------------------------------------------------
---------1------1-----1--1---------1--------1---------
--------2-------0----0---0--------2--------2----------
-------2--------2---2----2-------2--------2-----00h2--
-3-0---------------------------0-----0-2-3----3-------
-----3----3-0-3----3----3--3-0------------------------

------------------------------------------------------
---------------1-1------1---1-------------------------
--------------2--2-----2----2---------22-22-----------
-2p0---0h2---2---2----2-----2----00h2---------22-2-0h2
-----3-----------0--------0----3----------------------
-----------0--------0---------------------------------

---------------------------------------------0--------
-------------1-----1-----1-----1------------1---------
------------2-----2-----2-----2------------2----------
-2p0---0h2-------2-----2-----3------------------------
-----3---------0---------------------3-3-3------------
---------------------3-----1-----1-1------------------

------------------------------------------------------
-----------1-----1---1----1--1------------------------
-----------2----2----2---2---2------------------------
-----------2---2-----2--2----2------------------------
-33-00---0---------0--------0-------------------------
-------3------0--------0------------------------------


 

Тональность:

Это должно быть в ТОП-листе! - Топ-лист композиций



Назад
Рекомендуем посмотреть другие песни исполнителя «Nelson Willie»:

  • Комменты Fb ()
  • Комменты ВК



Добавить в Избранное Браузера
Сохранить здесь Очистить


x

0


+
-

+
-

-

Авторизация





Зарегистрироваться

M

Дата и время

  • 07:56:49
     

Социальные ссылки


Наши приложения

  • Muzbank App Play Market
  • Muzbank Amazon App