MUZBANK


МУЗЫКАЛЬНО-ИНФОРМАЦИОННЫЙ БАНК





NNick Cave • All Tomorrow’s Parties (аккорды и текст - chords & lyrics)


119

Print

Видео «All Tomorrow’s Parties (Nick Cave)»

Видео клипы к песне подбираются автоматически сайтом youtube. Возможны некоторые несоответствия клипов песне.

↑ Спрятать рекламу ↑





    C            C         Bb   Bb/A  C
And what costume shall the poor girl wear
   F     Dm       G        G
To all tomorrow’s parties
A hand-me-down dress from who knows where
To all tomorrow’s parties

    F              F      G              G
And where will she go and what shall she do
     F        F      G       G
When midnight comes around
       C         C       Bb Bb/A  C
She’ll turn once more to Sunday’s clown

    F     Dm       C
And cry behind the door

Lead fill:
   C
e:-1---0------------0------------------------------------------
B:---------3----3---1------------------------------------------
G:------------------0------------------------------------------
D:------------------2------------------------------------------
A:------------------3------------------------------------------
E:-------------------------------------------------------------

And what costume shall the poor girl wear
To all tomorrow’s parties
Why silks and linens of yesterday’s gowns
To all tomorrow’s parties

And what will she do with Thursday’s rags
When Monday comes around
She’ll turn once more to Sunday’s clown
And cry behind the door

Solo:
   F         C           G             C
e:-5-5-5-3-----------------------------------------------------
B:---------6-3-5-5-5-5-----------3---3-3-5-5-5-5---------------
G:-----------------------2-4-4-4---4---------------------------
D:-------------------------------------------------------------
A:-------------------------------------------------------------
E:-------------------------------------------------------------

   F            C           G          C
e:-8-8-8--7--5--------------1-1-1-0----0-----------------------
B:--------------3-5-5-5-5-----------3--1-----------------------
G:-------------------------------------0-----------------------
D:-------------------------------------2-----------------------
A:-------------------------------------3-----------------------
E:-------------------------------------------------------------

And what costume shall the poor girl wear
To all tomorrow’s parties
For Thursday’s child is Sunday’s clown
For whom none will go mourning

A blackened shroud, a hand-me-down gown
Of rags and silks, a costume
Fit for one who sits and cries
For all tomorrow’s parties

Тональность:

Отправитель: Moka

Это должно быть в ТОП-листе! - Топ-лист композиций



Назад
Рекомендуем посмотреть другие песни исполнителя «Nick Cave»:

  • Комменты Fb ()
  • Комменты ВК



Добавить в Избранное Браузера
Сохранить здесь Очистить


x

0


+
-

+
-

-

Авторизация





Зарегистрироваться

M

Дата и время

  • 04:24:25
     

Социальные ссылки


Наши приложения

  • Muzbank App Play Market
  • Muzbank Amazon App