MUZBANK


МУЗЫКАЛЬНО-ИНФОРМАЦИОННЫЙ БАНК





NNickelback • Too Bad (аккорды и текст - chords & lyrics)


855

Print

Видео «Too Bad (Nickelback)»

Видео клипы к песне подбираются автоматически сайтом youtube. Возможны некоторые несоответствия клипов песне.

↑ Спрятать рекламу ↑






 


Too Bad
Nickelback
Tabbed By: Mariano Arnaiz
Anything to: marianoarnaiz@hotmail.com

Intro / Verse

Play the Riff 2 when the verse is endding

Guitar 1 (Light distortion)
 
Riff 1          Riff 1
e-------------  e-----
B-------------  B-----
G-------------  G-----
D---5-5-5-5---  D--55-
A----3-3-3-3--  A--33-
D-------------  D-----

Guitar 2 (hight distortion)

Riff 1          Riff 1
e-------------  e-----
B-------------  B----- 
G-------------  G-----
D---3-3-3-3---  D--3--
A----1-1-1-1--  A--1--
D-------------  D-----

Chorus (both guitars)

I 

Тональность:

Это должно быть в ТОП-листе! - Топ-лист композиций



Назад
Рекомендуем посмотреть другие песни исполнителя «Nickelback»:

  • Комменты Fb ()
  • Комменты ВК



Добавить в Избранное Браузера
Сохранить здесь Очистить


x

0


+
-

+
-

-

Авторизация





Зарегистрироваться

M

Дата и время

  • 05:55:40
     

Социальные ссылки


Наши приложения

  • Muzbank App Play Market
  • Muzbank Amazon App