MUZBANK


МУЗЫКАЛЬНО-ИНФОРМАЦИОННЫЙ БАНК





NNightwish • Gethsemane (аккорды и текст - chords & lyrics)


673

Print

Видео «Gethsemane (Nightwish)»

Видео клипы к песне подбираются автоматически сайтом youtube. Возможны некоторые несоответствия клипов песне.

↑ Спрятать рекламу ↑





 


Intro:

	e------------------------------------------------------------------
	b----------------------------12------------------------------------
	g-----------------9-11-12-9----------------------------------------
	d-----------9------------------------------------------------------
	a---7-7-7-7-7------------------------------------------------------
	E------------------------------------------------------------------

	e------------------------------------------------------------------
	b------12-10-12-8-12-7-12---12-10-12-8-12-7-12---------------------
	g---9---------------------9----------------------------------------
	d------------------------------------------------------------------
	a------------------------------------------------------------------
	E------------------------------------------------------------------

	e------------------------------------------------------------------
	b------------------------------------------------------------------
	g------------------------------------------------------------------
	d---------------10-9-7-----7-----------7-----9-7-------------------
	a-----10-----7---------10----10-7-9-10---10------10-7-9------------
	E-----8------------------------------------------------------------

	e------------------------------------------------------------------
	b------------------------------------------------------------------
	g------------------------------------------------------------------
	d------------------------------------------------------------------
	a-----9----------------9-------------------------------------------
	E-----7-77777777777777-7-------------------------------------------
		..............
	
	Then, repeat, except for:
	
	e------------------------------------------------------------------
	b------12-10-12-8-12-7-12---12-------------------------------------
	g---9---------------------9----8--9(a.h.)--------------------------
	d------------------------------------------------------------------
	a------------------------------------------------------------------
	E------------------------------------------------------------------
	
	at the end, it goes like this:

	e------------------------------------------------------------------
	b------------------------------------------------------------------
	g------------------------------------------------------------------
	d------------------------------------------------------------------
	a-----9----------------9-----9-7-5-4-2-------------------------------
	E-----7-77777777777777-7--77-7-5-3-2-0-------------------------------
		..............    ..
		
	Verse:

	e------------------------------------------------------------------
	b------------------------------------------------------------------
	g------------------------------------------------------------------
	d-----------------------------------2---------------5----7---------
	a---2-------------------------------0-0-0-000-0-00--3----5---------
	E---0--0-0-000-0-0---000-0-000-0-00--------------------------------
	       . . ... . .   ... . ... . ..   . . ... . .. 	

	On the second time, there is a tempo break that I can 

Тональность:

Это должно быть в ТОП-листе! - Топ-лист композиций



Назад
Рекомендуем посмотреть другие песни исполнителя «Nightwish»:

  • Комменты Fb ()
  • Комменты ВК



Добавить в Избранное Браузера
Сохранить здесь Очистить


x

0


+
-

+
-

-

Авторизация





Зарегистрироваться

M

Дата и время

  • 11:30:10
     

Социальные ссылки


Наши приложения

  • Muzbank App Play Market
  • Muzbank Amazon App