MUZBANK


МУЗЫКАЛЬНО-ИНФОРМАЦИОННЫЙ БАНК





NNightwish • The Kinslayer (аккорды и текст - chords & lyrics)


727

Print

Видео «The Kinslayer (Nightwish)»

Видео клипы к песне подбираются автоматически сайтом youtube. Возможны некоторые несоответствия клипов песне.

↑ Спрятать рекламу ↑





 


Intro:
e:---------------------------------------------------------------------------|
B:---------------------------------------------------------------------------|
G:------2-------------2---------------------2-------------2------------------|
D:-2-2--2--4--7--2-2--2--4--7--------2-2-2--2--4--7--2-2--2--4--7------------|
A:-2-2--0--2--5--2-2--0--2--5--5--4--2-2-2--0--2--5--2-2--0--2--5--5--4------|
E:-0-0-----------0-0-----------3--2--0-0-0-----------0-0-----------3--2--2---|
   x x           x x                 x   x           x x                 x

Part 1:
After the Intro 2X:
e:-----------------------------------------------------------------------------|
B:-----------------------------------------------------------------------------|
G:---------------------------------------------4-2-------4---4-----------------|
D:-2-----2-----5---4-------2---4---5-----5---------5-4-5---4-------------------|
A:---2-2---2-2---2---2-5-2---2---2---2-2---2-2---------------------------------|
E:-----------------------------------------------------------------------------|
     x x   x x   x   x   x   x   x   x x   x x                                  

Part 2:
This here 2X:
e:-----------------------------------------------------------------------------|
B:-----------------------------------------------------------------------------|
G:-----------------------------------------------------------------------------|
D:---------------------------------------------6-4-------6---6-----------------|
A:-4-----4-----7---6-------4---6---7-----7---------7-6-7---6-------------------|
E:---4-4---4-4---4---4-7-4---4---4---4-4---4-4---------------------------------|
     x x   x x   x   x   x   x   x   x x   x x                                  

In this part Tarja starts to sing: " For whom the gun tolls . . . .       
You have to listen to the Rhythm while Tarja is singing!!!
  Repeat this  |             |Repeat this    |              |
  Part 15x:    |             |Part 15x:      |              |
e:-------------|-------------|---------------|--------------|
B:-------------|-------------|---------------|--------------|
G:-------------|-------------|---------------|--------------|
D:-------------|-------------|---------------|-4-3----------|
A:-------------|-------------|-5-4-2-0-------|-----7-6------|
E:-5-4-2-0-----|--0-2-4-5----|---------------|--------------|
   x x x x        x x x x      x x x x                                   

  Repeat this  |         |Repeat this |        |Repeat this |
  Part 7x:     |         |Part 7x:    |        |Part 6x:    |
e:-------------|---------|------------|--------|------------|-----------|---
B:-------------|---------|------------|--------|------------|-----------|---
G:-------------|---------|------------|--------|------------|--9-9--4-4-|---
D:-------------|--6--6---|------------|--5--5--|------------|--9-9--4-4-|---
A:-------------|--6--6---|------------|--5--5--|--5-4-2-0---|--7-7--2-2-|---
E:-5-4-2-0-----|--4--4---|--5-4-2-0---|--3--3--|------------|-----------|---
   x x x x                  x x x x               x x x x                         


. . . left to be followed "

  Repeat this |               |  
  Part 7x:    |               |
e:------------|---------------|
B:------------|---------------|
G:------------|---------------|
D:------------|--4-3----------|
A:-5-4-2-0----|------7-6------|
E:------------|---------------|
   x x x x                    |                                                  
                              |                                                  

Part 2:
This here 2X:
e:-----------------------------------------------------------------------------|
B:-----------------------------------------------------------------------------|
G:-----------------------------------------------------------------------------|
D:---------------------------------------------6-4-------6---6-----------------|
A:-4-----4-----7---6-------4---6---7-----7---------7-6-7---6-------------------|
E:---4-4---4-4---4---4-7-4---4---4---4-4---4-4---------------------------------|
     x x   x x   x   x   x   x   x   x x   x x                                  

You have to listen to this part of the song to get the right rithm!

e:------------------------------------------------------|
B:------------------------------------------------------|
G:--6-6--6-6--6-6--6-6--6-6--6-6--6-6--6-6---66-6-77-7--|
D:--6-6--6-6--6-6--6-6--6-6--6-6--6-6--6-6---66-6-77-7--|                     A:--4-4--4-4--4-4--4-4--4-4--4-4--4-4--4-4---44-4-55-5--|
E:------------------------------------------------------|
    x x  x x  x x  x x  x x  x x  x x  x x   xx   xx                            

e:-----------------------------------------------------------|
B:-----------------------------------------------------------|
G:-----------------------------------------------------------|
D:--2-2--2-2--2-2--2-2--22---2--5-5--5-5--5-5--7-7--7-7--7---|
A:--2-2--2-2--2-2--2-2--22---2--5-5--5-5--5-5--7-7--7-7--7---|
E:--0-0--0-0--0-0--0-0--00-3-0--3-3--3-3--3-3--5-5--5-5--5---|
    x x  x x  x x  x x  xx x x  x x  x x  x x  x x  x x  x


e:-----------------------------------------------------------|
B:-----------------------------------------------------------|                         G:---------------------------------------------5--5--5--5----|
D:--2-2--2-2--2-2--2-2--22---2--7-7--7-7--7-7--5--5--5--5----|
A:--2-2--2-2--2-2--2-2--22---2--7-7--7-7--7-7--3--3--3--3----|
E:--0-0--0-0--0-0--0-0--00-3-0--5-5--5-5--5-5----------------|
    x x  x x  x x  x x  xx x x  x x  x x  x x

e:-----------------------------------------------------------|
B:-----------------------------------------------------------|
G:-----------------------------------------------------------|
D:--2-2--2-2--2-2--2-2-22---2--5-5--5-5--5-5--7--7--7--7-----|
A:--2-2--2-2--2-2--2-2-22---2--5-5--5-5--5-5--7--7--7--7-----|
E:--0-0--0-0--0-0--0-0-00-3-0--3-3--3-3--3-3--5--5--5--5-----|
    x x  x x  x x  x x xx x x  x x  x x  x x                                    





e:------------------------------------------------------------|
B:------------------------------------------------------------|
G:---------------------------------------------4--4--4--4-----|
D:--2-2--2-2--2-2--2-2--22---2--7-7--7-7--7-7--4--4--4--4-----|
A:--2-2--2-2--2-2--2-2--22---2--7-7--7-7--7-7--2--2--2--2-----|
E:--0-0--0-0--0-0--0-0--00-3-0--5-5--5-5--5-5-----------------|
    x x  x x  x x  x x  xx x x  x x  x x  x x 

e:------------------------------------------------------------------------------
B:------------------------------------------------------------------------------
G:-------7--7------------------7--7----------8-------7--7----------7-------7--7-
D:--2----7--7--2---7--7--7----7--7--2----7--8--2----7--7--2----7--7--2----7--7-
A:--2----5--5--2---7--7--7----5--5--2----7--6--2----5--5--2----7--5--2----5--5-
E:--0----------0---5--5--5----------0----5-----0----------0----5-----0---------
                                                                              

e:--------------|
B:--------------|
G:----------8---|
D:--2----7--8---|
A:--2----7--6---|
E:--0----5------|

And now Tarja 

Тональность:

Это должно быть в ТОП-листе! - Топ-лист композиций



Назад
Рекомендуем посмотреть другие песни исполнителя «Nightwish»:

  • Комменты Fb ()
  • Комменты ВК



Добавить в Избранное Браузера
Сохранить здесь Очистить


x

0


+
-

+
-

-

Авторизация





Зарегистрироваться

M

Дата и время

  • 23:02:15
     

Социальные ссылки


Наши приложения

  • Muzbank App Play Market
  • Muzbank Amazon App