MUZBANK


МУЗЫКАЛЬНО-ИНФОРМАЦИОННЫЙ БАНК





NNirvana • Come as you are (аккорды и текст - chords & lyrics)


1852

Print

Видео «Come as you are (Nirvana)»

Видео клипы к песне подбираются автоматически сайтом youtube. Возможны некоторые несоответствия клипов песне.

↑ Спрятать рекламу ↑





Voicings:

 F# - 244322
 A  - x0222x
 B  - 22444x
 D  - x0023x

Main Riff (with Припев:-effect pedal)
E|---------------------------------------------|
B|---------------------------------------------|
G|---------------------------------------------|
D|---------------------------------------------|
A|---------------0-----0--------------2--------|
E|--0--0--1--2------2-----2--2--1--0-----0--0--|

Chorus

------------------------------
-----------2-2-2-2-2-2-2-2----
-----------2-2-2-2-2-2-2-2----
--4-4-4-4--2-2-2-2-2-2-2-2----
--4-4-4-4---------------------
--2-2-2-2---------------------

'Memoria, Memoria . . . .'

Bridge

---------------2-2-2-2-2-2--
---------------3-3-3-3-3-3--
--4-4-4-4-4-4--2-2-2-2-2-2--
--4-4-4-4-4-4---------------
--2-2-2-2-2-2---------------

[The 'memoria' part:  F# A ]
[The 'And I swear that I don't...' part:  B D ]

repeat mail riff 3x 

Come as you are, as you were
As I want you to be
As a friend, as a friend
As an old enemy
Take your time, hurry up
The choice is your
Don't be late, take a rest
As a friend
As an old memoria
memoria, memoria, memoria

Come dowsed in mud, soaked in bleach
As I want you to be
As a trend, as a friend
As an old memoria
memoria, memoria, memoria

And I swear that I don't have a gun
No I don't have a gun
No I don't have a gun

Solo: Repeat 4x
E|---------------------|------------------------|
B|---------------------|------------------------|
G|--6-9-11-11⁄6-6-9⁄11-|-6-9-11-11-13-11-11-9⁄6-|
D|---------------------|------------------------|
A|---------------------|------------------------|
E|---------------------|------------------------|

memoria, memoria, memoria, memoria

And I swear that I don't have a gun
No I don't have a gun  [Repeat 5x]

memoria

Тональность:

Это должно быть в ТОП-листе! - Топ-лист композиций



Назад
Рекомендуем посмотреть другие песни исполнителя «Nirvana»:

  • Комменты Fb ()
  • Комменты ВК



Добавить в Избранное Браузера
Сохранить здесь Очистить


x

0


+
-

+
-

-

Авторизация





Зарегистрироваться

M

Дата и время

  • 16:03:33
     

Социальные ссылки


Наши приложения

  • Muzbank App Play Market
  • Muzbank Amazon App