MUZBANK


МУЗЫКАЛЬНО-ИНФОРМАЦИОННЫЙ БАНК





NNirvana • In Bloom (аккорды и текст - chords & lyrics)


1440

Print

Видео «In Bloom (Nirvana)»

Видео клипы к песне подбираются автоматически сайтом youtube. Возможны некоторые несоответствия клипов песне.

↑ Спрятать рекламу ↑






Intro: C Am G A# |2 times
       C G# F C# H

C        G#         F   C# H
Sell the kids for food
C        G#         F   C# H
Weather changes moods
Spring is here again
Reproductive glands

Chorus:
     C             Am            C               Am
     Hey, he?s the one who likes all the pretty songs
             C              Am
     And he likes to sing along
             C                 Am
     And he likes to shoot his gun
             D                 F
     But he knows not what it means
       D                 F
     Knows not what it means, And I say |2 times

     C Am G A# |2 times

Chorus: He's the one...

We can have some more
Nature is a whore
Bruises on the fruit
Tender age in bloom

Chorus: 2 times

Tabulature:

 (Intro Riff) -- Also shows up quite often
|-------------------------------------|
|-------------------------------------|
|-3---3-3-3---------------------------|
|-3---3-3-3-5------3---3-3-3-6--------|
|-1---1-1-1-5-ring-3---3-3-3-6-ring---|
|-----------3------1---1-1-1-4--------|

verse

|-------------------------------------------------------|
|-------------------------------------------------------|
|--------------------------8-8-8-8-8--------------------|
|--8-8-8-8-8---4-4-4-4-4---8-8-8-8-8---9-9-9---7-7-7/8--|
|--8-8-8-8-8---4-4-4-4-4---6-6-6-6-6---9-9-9---7-7-7/8--|
|--6-6-6-6-6---2-2-2-2-2---------------7-7-7---5-5-5/6--|

Then chorus

|-----------------------|
|-----------------------|
|-----------------------|
|-8----8-8\5----5-5-----|
|-8----8-8\5----5-5-----|
|-6----6-6\3----3-3-----|
  He's the one...

|--------------------------------|
|--------------------------------|
|-5--5-5-5/8-8-8-8-8-------------|
|-5--5-5-5/8-8-8-8-8-------------|
|-3--3-3-3/6-6-6-6-6-------------|
|--------------------------------|
  Don't know what it means...

[solo]
   )    )      )    )
|--8----8-----10----6-----------------------------------|
|--------------------------------------)---------)-)----|
|----------------------7----9-10-9-10-10-9-9-7-9-9-9-7--|
|-------------------------------------------------------|
|-------------------------------------------------------|
|-------------------------------------------------------|
   )                                )
|-12--------------------------)--)--8----)--)-----------|
|----------------------------12-13-----7-7--9-8---------|
|-------12-14-12-14-15-14-15----------------------------|
|-------------------------------------------------------|
|-------------------------------------------------------|
|-------------------------------------------------------|


Тональность:

Это должно быть в ТОП-листе! - Топ-лист композиций



Назад
Рекомендуем посмотреть другие песни исполнителя «Nirvana»:

  • Комменты Fb ()
  • Комменты ВК



Добавить в Избранное Браузера
Сохранить здесь Очистить


x

0


+
-

+
-

-

Авторизация





Зарегистрироваться

M

Дата и время

  • 15:05:31
     

Социальные ссылки


Наши приложения

  • Muzbank App Play Market
  • Muzbank Amazon App