MUZBANK


МУЗЫКАЛЬНО-ИНФОРМАЦИОННЫЙ БАНК





NNirvana • Man who sold the world (аккорды и текст - chords & lyrics)


996

Print

Видео «Man who sold the world (Nirvana)»

Видео клипы к песне подбираются автоматически сайтом youtube. Возможны некоторые несоответствия клипов песне.

↑ Спрятать рекламу ↑





Voicings:

A  - x0222x
D5 - xx023x
F  - 133211
C  - x3555x
G  - 355433
Bb - x1333x

Проигрыш (with distortion); Repeat 6x
E|--------------------|- -|-----|-
B|--------------------|- -|-----|-
G|--2-2-2-0--2Н3p2-0--|- -|--2~-|-
D|--------------------|- -|-----|-
A|--------------------|- -|-----|-
E|--------------------|- -|-----|-

                    A
We passed upon the stairs,
                    D
We spoke of was and when
                  A
Although I wasn't there
                  F
He said I was his friend
                    C
Which came as a surprise
                 A                           D
I spoke into his eyes - I thought you died alone
                    C
A long long time ago

   C - Riff                F - Riff
E|-----------------|-   -|-----------------|-
B|-----------------|-   -|-----------------|-
G|-----------2-4-5-|-   -|-----------------|-
D|-----2-3-5-------|-   -|-----------0-2-3-|-
A|-3-5-------------|-   -|-----0-1-3-------|-
E|-----------------|-   -|-1-3-------------|-

           F
Oh no, not me,
   Bb                F
We never lost control,
          C        F

You're face to face,
         Bb               A
With the man who sold the world

[Repeat Проигрыш]

                        A
I laughed and shook his hand,
                  D
I made my way back home,
                        A
I searched for form and land,
                      F
Years and years I roamed,
                 C
I gazed a gazely stare,
                     A                         D
We walked a million hills - I must have died alone,
                    C
A long long time ago.

               F
Who knows, not me,
  Bb                F
I never lost control,
          C       F
You're face, to face,
         Bb               A
With the man who sold the world.

[Repeat Проигрыш]
[Repeat second Припев:]
[Repeat Проигрыш]

Outro: (Not very accurate, but at least the right notes)
E|-------------------------------------------------------|
B|-------------------------------------------------------|
G|--2-2-2-0--2Н3p2-0--2-2-2-0--2Н3p2-0--/9-9-9-9-9-9-9-9-|
D|-------------------------------------------------------|
A|-------------------------------------------------------|
E|-------------------------------------------------------|

E|-------------------------------------------------------|
B|-------------------------------------------------------|
G|--⁄2-2-2-0--2Н3p2-0--2-2-2-0--2Н3p2-0-/10-10-10-10-10--|
D|-------------------------------------------------------|
A|-------------------------------------------------------|
E|-------------------------------------------------------|

E|-------------------------------------------------------|
B|-------------------------------------------------------|
G|-⁄9-⁄7-7-7-7-7-7-/9-9-9-9-9-⁄2-2-2-0-2Н3p2-0-/10-10-10-|
D|-------------------------------------------------------|
A|-------------------------------------------------------|
E|-------------------------------------------------------|

E|-------------------------------------------------------|
B|-------------------------------------------------------|
G|-10-10-⁄9-⁄7-7-7-7-7-7-/9-9-9-9-9-⁄2-2-2-0-2Н3p2-0--2--|
D|-------------------------------------------------------|
A|-------------------------------------------------------|
E|-------------------------------------------------------|

Тональность:

Это должно быть в ТОП-листе! - Топ-лист композиций



Назад
Рекомендуем посмотреть другие песни исполнителя «Nirvana»:

  • Комменты Fb ()
  • Комменты ВК



Добавить в Избранное Браузера
Сохранить здесь Очистить


x

0


+
-

+
-

-

Авторизация





Зарегистрироваться

M

Дата и время

  • 14:59:05
     

Социальные ссылки


Наши приложения

  • Muzbank App Play Market
  • Muzbank Amazon App