MUZBANK


МУЗЫКАЛЬНО-ИНФОРМАЦИОННЫЙ БАНК





NNirvana • My Sharona (аккорды и текст - chords & lyrics)


621

Print

Видео «My Sharona (Nirvana)»

Видео клипы к песне подбираются автоматически сайтом youtube. Возможны некоторые несоответствия клипов песне.

↑ Спрятать рекламу ↑






Intro/Verse:

G|--------------------------------------------|
D|-----5-5---5---5-----5------5-5---5---------|
A|------------------------------------3-1-3-1-|
E|-3-3-----3---3---3-3----3-3-----3-----------|

Chorus:

G|-------------------------------------------------------------|
D|---5-5-5--5-5-5--5-5-5--5-5-5--8-8-8---8-8-8---8-8-8---8-8-8-|
A|-------------------------------------------------------------|
E|-3------3------3-------3------6------6-------6-------6-------|

G|-------+---------|
D|-------|---------|
A|-----6-|-6-6-6-8-|
E|-8-8---+---------|

1st Variation

G|-----------------------------------------|
D|-----5-5---5----5---5-5---*-----5-5---5--|
A|--------------------------*--------------|
E|-3-3-----3----3---3-----1/--3-3-----3----|

G|---------------------------------|
D|---5---5-5-5-------------------*-|
A|--------------3-3-6--6-6-8-6-8-*-|
E|-3---3---------------------------|

G|--------------------------------|
D|--------------------------------|
A|-5-5-5-5-5-5-5-5--5-5-5-5-5-10X-|
E|--------------------------------|

2nd Variation

G|----------------------------------|
D|-----5-5---5----5---5-5-5---------|
A|---------------------------3-3-6--|
E|-3-3-----3----3---3---------------|

G|----------------------------------------|
D|-----------*-----5-5---5----5-----5---*-|
A|-6-6-8-6-8-*--------------------------*-|
E|-------------3-3-----3----3---3-3---3---|

G|-----------------------------------------------------|
D|-----5-5---5----5-----5------------------------------|
A|-------------------------3--3------------------------|
E|-3-3-----3----3---3-3---------3/-8--8-8-10-10-10-8-3-|

Solo

G|----------------------------------------|
D|*-----------------*---------------------|
A|*-3---------------*-3---------------0-1-|
E|-----3-3-1-1-1-1-3-----3-3-1-1-1-3-3----|

G|------------------------------|
D|-*--------------3-3-----------|
A|-*-3-----------------3--------|
E|------3-3-1--1-1--------3-3-1-|

G|-----------------------------------------------------------|
D|-----------------------------------------------------------|
A|----------3--------------3-----------------5-5-5-5-5-5-5-5-|
E|-1-1-1-3----3-3-1-1-1-1----3-3-1--1-1-1-3------------------|

G|----------------------|
D|-----------R-2:-R-----|
A|-5-5-5-5-5---4:---10X-|
E|----------------------|

End

G|------------------------------|
D*4:-----5-5---5----5---5-5---*-|
A*4:--------------------------*-|
E|----3-3-----3----3---3-----1/-|

Тональность:

Это должно быть в ТОП-листе! - Топ-лист композиций



Назад
Рекомендуем посмотреть другие песни исполнителя «Nirvana»:

  • Комменты Fb ()
  • Комменты ВК



Добавить в Избранное Браузера
Сохранить здесь Очистить


x

0


+
-

+
-

-

Авторизация





Зарегистрироваться

M

Дата и время

  • 15:20:41
     

Социальные ссылки


Наши приложения

  • Muzbank App Play Market
  • Muzbank Amazon App