MUZBANK


МУЗЫКАЛЬНО-ИНФОРМАЦИОННЫЙ БАНК





NNirvana • Opinion (аккорды и текст - chords & lyrics)


1628

Print

Видео «Opinion (Nirvana)»

Видео клипы к песне подбираются автоматически сайтом youtube. Возможны некоторые несоответствия клипов песне.

↑ Спрятать рекламу ↑





  Bb F#5 C#5 F5
e-----------------     Бой 
b-----------------
G-3-------6-------
D-3---4---6---3---
A-1---4---4---3---
E-----2-------1---



Congradulations you have won
It`s a useless subscription of bad puns.
And it makes your story our concern
You said it all your glory burns

My opinion Mmmm x4


There is seems to be a problem here
Your state of emotion seems to clear
You rise & fall like Wall street stock
And you have an affect on our happy talk

Opinion Mmmm
Your opinion Mmmm x3

Verse 1

My opinion Mmmm x2
Your opinion Mmmm x2
Your opinion ----здесь последний раз по струнам

      B5     G5     D5     F#5
e---------------------------------------------
B---------------------------------------------
G-----4-------------7-------------------------
D-----4------5------7------4------------------
A-----2------5------5------4------------------
E------------3-------------2------------------

Тональность:

Это должно быть в ТОП-листе! - Топ-лист композиций



Назад
Рекомендуем посмотреть другие песни исполнителя «Nirvana»:

  • Комменты Fb ()
  • Комменты ВК



Добавить в Избранное Браузера
Сохранить здесь Очистить


x

0


+
-

+
-

-

Авторизация





Зарегистрироваться

M

Дата и время

  • 14:50:37
     

Социальные ссылки


Наши приложения

  • Muzbank App Play Market
  • Muzbank Amazon App