MUZBANK


МУЗЫКАЛЬНО-ИНФОРМАЦИОННЫЙ БАНК





NNirvana • Plateau (аккорды и текст - chords & lyrics)


1017

Print

Видео «Plateau (Nirvana)»

Видео клипы к песне подбираются автоматически сайтом youtube. Возможны некоторые несоответствия клипов песне.

↑ Спрятать рекламу ↑






Voicings:

 G     - 320x33
 Bb    - 650x66
 Fsus2 - 1xx011
 G#    - 4xx044

Main Riff
 E--3-------6-------3-------6-------3-------6-------1---------|
 B------------------------------------------------------1-----|
 G----------------------------------------------------0-------|
 D-----(0)-----(0)-----(0)-----(0)-----(0)-----(0)------------|
 A---(2)-----(5)-----(2)-----(5)-----(2)-----(5)--------------|
 E--3-------6-------3-------6-------3-------6-------1---------|

Pre-Припев:            Припев:
 E--4------|-         -|--1/3------------------------3--------|
 B------4--|-         -|--1/3-------------3-----3----3-----6--|
 G----0----|-         -|------------------3-----3----------7--|
 D---------|-         -|---------5--x-----3-----3----------8--|
 A---------|-         -|---------5--x--1-----------5----------|
 E--4------|-         -|-------3-------------1-----3---/6-----|

Many a hand has scaled the grand old face of the plateau
Some belong to strangers and some to folks you know
Holy ghosts and talk show hosts are planted in the sand
To beautify the foothills and shake the many hands

There's nothing on the top but a bucket and a mop
And an illustrated book about birds
You see a lot up there but don't be scared
Who needs action when you got words

When you're finished with the mop then you can stop
And look at what you've done
The plateau's clean, no dirt to be seen
And the work it took was fun

[Repeat Припев:]

Well the many hands began to scan around for the next plateau
Some said it was in greenland and some in mexico
Others decided it was nowhere except for where they stood
But those were all just guesses, wouldn't help you if they could

Pre-outro

E--4----------------4---6-----------------6--------------------|
B---------4-------4------------6--------6----------------------|
G--------------------------------------------------------------|
D------0-------0------------0-------0--------------------------|
A----3-------3------------5-------5----------------------------|
E--4--------------------6--------------------------------------|

Outro

E|-(0)--------------------------0------------------------------|
B|--------------0-------2---------1p0--------------------------|
G|------2-----2---2---2-------2--------------------------------|
D|----2-----2-------0-------0----------------------------------|
A|--0-----0---------------3------------------------------------|
E|-------------------------------------------------------------|

E|-------------------------------------------------------------|
B|--------2----------0-----------0--------1p0------------------|
G|-----2----------2-----2-----2---------2----------------------|
D|--2----------2-----------3----------0------------------------|
A|----------0----------------------3---------------------------|
E|-------------------------------------------------------------|

Тональность:

Это должно быть в ТОП-листе! - Топ-лист композиций



Назад
Рекомендуем посмотреть другие песни исполнителя «Nirvana»:

  • Комменты Fb ()
  • Комменты ВК



Добавить в Избранное Браузера
Сохранить здесь Очистить


x

0


+
-

+
-

-

Авторизация





Зарегистрироваться

M

Дата и время

  • 16:14:39
     

Социальные ссылки


Наши приложения

  • Muzbank App Play Market
  • Muzbank Amazon App