MUZBANK


МУЗЫКАЛЬНО-ИНФОРМАЦИОННЫЙ БАНК





NNirvana • Polly (аккорды и текст - chords & lyrics)


2454

Print

Видео «Polly (Nirvana)»

Видео клипы к песне подбираются автоматически сайтом youtube. Возможны некоторые несоответствия клипов песне.

↑ Спрятать рекламу ↑






Voicings:

 E5 - 022x00
 G  - 320033 or 320003
 D  - x0023x
 C  - x3555x
 Bb - x1333x

[During Версия  strum each line :  E  G  D  C]
[During Припев: strum each line:  D  C  G Bb]

Polly Wants a Cracker
I think I should get off her first
I think she wants some water
To put out the blow torch

It isn't me, we have some seed
Let me clip your dirty wings
Let me take a ride, don't hurt yourself
I want some help to help myself
I've got some rope, you have been told
I promise you, I've been true
Let me take a ride, don't hurt yourself
I want some help to help myself

Polly wants a cracker
Maybe she would like more food
She asks me to untie her
A chase would be nice for a few

[Repeat Припев:]

Bass bridge: Repeat 2x
G|-------------------------|
D|----------0-0-0----------|
A|----------------3-3-3-3--|
E|--0-3-3-3----------------|

Polly said
Polly says her back hurts
And she's just as bored as me
She caught me off my guard
It amazes me, the will of instinct

[Repeat Припев:]

Перевод:

Полли

Полли хочет печеньице-крекер.
Думает, что я слезу с нее первым.
А мне сдается, нужна ей водичка,
Чтобы потушить огонь паяльной лампы.

Это не я , у нас есть семя,
Позволь мне подрезать твои грязные крылья.
Позволь мне проехаться верхом, но не поранься.
Мне всего лишь нужно немного помочь,
чтобы я получил удовольствие.
У  меня есть веревка - я тебе уже несколько раз говорил,
Я обещаю тебе, а я всегда говорил правду.
Позволь мне проехаться верхом, не поранься.
Мне всего лишь нужно немного помочь,
чтобы я получил удовольствие.

Полли хочет печеньице-крекер.
Сдается мне, она не прочь перекусить.
Она просит, чтобы я развязал ее.
Мало кому эта погоня может показаться восхитительной.

Полли говорила - у нее спина болит,
И ей так же скучно, как и мне.
Она застала меня врасплох.
Желание удовлетворить инстинкт забавляет меня.


                        Polly wants a cracker...
            E     G           D           C
        e|----------------------------------------------
        A|----------------------------------------------
        D|--------------------7--7--7-----5---5--5--5---
        G|--2-----5--5--5-----7--7--7-----5---5--5--5---
        B|--2-----5--5--5-----5--5--5-----3---3--3--3---
        E|--0-----3--3--3-------------------------------


        Chorus:

                 It isn~t me,           We have some seed...
            D       C             G       A#
         |----------------------------------------------
         |----------------------------------------------
         |--7--7----5--5--5--5--------------------------
         |--7--7----5--5--5--5----5--5----8--8--8--8----
         |--5--5----3--3--3--3----5--5----8--8--8--8----
         |------------------------3--3----6--6--6--6----


        Interlude: (optional)

                        Polly said...
         |----------------------------------------------
         |----------------------------------------------
         |----------------------------------------------
         |--------------------0--0--0-------------------
         |--------------------------------3---3--3--3---
         |--0-----3--3--3-------------------------------

Тональность:

Это должно быть в ТОП-листе! - Топ-лист композиций



Назад
Рекомендуем посмотреть другие песни исполнителя «Nirvana»:

  • Комменты Fb ()
  • Комменты ВК



Добавить в Избранное Браузера
Сохранить здесь Очистить


x

0


+
-

+
-

-

Авторизация





Зарегистрироваться

M

Дата и время

  • 15:02:10
     

Социальные ссылки


Наши приложения

  • Muzbank App Play Market
  • Muzbank Amazon App