MUZBANK


МУЗЫКАЛЬНО-ИНФОРМАЦИОННЫЙ БАНК





NNirvana • School (аккорды и текст - chords & lyrics)


1176

Print

Видео «School (Nirvana)»

Видео клипы к песне подбираются автоматически сайтом youtube. Возможны некоторые несоответствия клипов песне.

↑ Спрятать рекламу ↑






E||-------------------|--------------------------------|
B||-------------------|--------------------------------|
G||-------------------|--------------------------------|
D||-------------------|--------------------------------|
A||-------------------|--------------------------------|
E||--0----------------|--0--0-0-5b0-0-5b0-0-0-0-0-0-5b-|

E|------------------------------|------------------------------|
B|------------------------------|------------------------------|
G|------------------------------|------------------------------|
D|------------------------------|------------------------------|
A|------------------------------|------------------------------|
E|-0-0-0-5b0-0-5b0-0-0-0-0-0-5b-|-0-0-0-5b0-0-5b0-0-0-0-0-0-5b-|

E|------------------------------|------------------------------|
B|------------------------------|------------------------------|
G|------------------------------|------------------------------|
D|------------------------------|------------------------------|
A|------------------------------|------------------------------|
E|-0-0-0-5b0-0-5b0-0-0-0-0-0-5b-|-0-0-0-5b0-0-5b0-0-0-0-0-0-5b-|

E|------------------------------|------------------------------|
B|------------------------------|------------------------------|
G|------------------------------|------------------------------|
D|------------------------------|------------------------------|
A|------------------------------|------------------------------|
E|-0-0-0-5b0-0-5b0-0-0-0-0-0-5b-|-0-0-0-5b0-0-5b0-0-0-0-0-0-5b-|

E|------------------------------|------------------------------|
B|------------------------------|--5---5-5--5-5-5--------------|
G|------------------------------|--5---5-5--5-5-5--2-2--2--2-2-|
D|------------------------------|--5---5-5--5-5-5--2-2--2--2-2-|
A|------------------------------|--3---3-3--3-3-3--0-0--0--0-0-|
E|--0--0-0-5b0-0-5b0-0-0-0-0--0-|------------------------------|

E|-------------------------------|-----------------------------|
B|-------------------------------|-5--5-5--5-5-5---------------|
G|---------------------7--7--7-7-|-5--5-5--5-5-5--2-2--2-2-2-2-|
D|-2---2-2---2-2-2-2---7--7--7-7-|-5--5-5--5-5-5--2-2--2-2-2-2-|
A|-2---2-2---2-2-2-2---5--5--5-5-|-3--3-3--3-3-3--0-0--0-0-0-0-|
E|-0---0-0---0-0-0-0---5--5--5-5-|-----------------------------|

E|------------------------------|------------------------------|
B|------------------------------|------------------------------|
G|------------------------------|------------------------------|
D|------------------------------|------------------------------|
A|------------------------------|------------------------------|
E|-0-0-0-5b0-0-5b0-0-0-0-0-0-5b-|-0-0-0-5b0-0-5b0-0-0-0-0-0-5b-|

E|------------------------------|------------------------------|
B|------------------------------|------------------------------|
G|------------------------------|------------------------------|
D|------------------------------|------------------------------|
A|------------------------------|------------------------------|
E|-0-0-0-5b0-0-5b0-0-0-0-0-0-5b-|-0-0-0-5b0-0-5b0-0-0-0-0-0-5b-|

E|------------------------------|------------------------------|
B|------------------------------|------------------------------|
G|------------------------------|------------------------------|
D|------------------------------|------------------------------|
A|------------------------------|------------------------------|
E|-0-0-0-5b0-0-5b0-0-0-0-0-0-5b-|-0-0-0-5b0-0-5b0-0-0-0-0-0-5b-|

E|-----------------------------|------------------------------|
B|--5---5-5--5-5-5-------------|------------------------------|
G|--5---5-5--5-5-5-2-2--2--2-2-|--------------------7--7--7-7-|
D|--5---5-5--5-5-5-2-2--2--2-2-|-2---2-2---2-2-2-2--7--7--7-7-|
A|--3---3-3--3-3-3-0-0--0--0-0-|-2---2-2---2-2-2-2--5--5--5-5-|
E|-----------------------------|-0---0-0---0-0-0-0--5--5--5-5-|

E|----------------------------|
B|-5--5-5--5-5-5--------------|
G|-5--5-5--5-5-5-2-2--2-2-2-2-|
D|-5--5-5--5-5-5-2-2--2-2-2-2-|
A|-3--3-3--3-3-3-0-0--0-0-0-0-|
E|----------------------------|

E|-----------------------------------------11-11------|
B|-----------------------------------------10-10------|
G|----------------------------------------------------|
D|------------8--10--11--11--11—11--11-11-------------|
A|-0--0-0---7----9---10--10--10-10--10-10-------------|
E|-0--0-0-----------------------------------------0-0-|

E|------------------------------------------------11-11------|
B|------------------------------------------------10-10------|
G|-----------------------------------------------------------|
D|---------------11--11--11--11------11-----11---------------|
A|----------0-0--10--10--10--10--10-----10-------------------|
E|--0--0-0-----------------------------------------------0-0-|

E|-------------------------------------------------------|
B|-------------------------------------------------------|
G|-----10---10—10--10-11---11--12----12--12--14-14-14----|
D|-----9----9---9-----9----10--10—11—11--11--13-13-13----|
A|-----8----8---8-----8----9----9----10--10--10-12-12-12-|
E|--0----------------------------------------------------|

E|-----------------------------------------|
B|-----------------------------------------|
G|-----14-14-14-14--12--12-12-12-12-12-12/-|
D|-----13-13-13-13--11--11-11-11-11-11-11/-|
A|-----12-12-12-12--10--10-10-10-10-10-10/-|
E|--0--------------------------------------|

E|-----------------------------------|
B|--2r--0-2r-0-2r-0-2r---------------|
G|--2r--0-2r-0-2r-0-2r--2h0----------|
D|-------------------------2h0-------|
A|-----------------------------------|
E|--------------------------------3b-|

E|----------------------------------------|
B|----------------------------------------|
G|----------------------------------------|
D|--0--7-7-7-12--12--12-12h14-14h12h14h12-|
A|--0--7-7-7------------------------------|
E|----------------------------------------|

E|--------------------------------------------------------|
B|--------------------------------------------------------|
G|-----------------------------------------------------12-|
D|--14--14h0-14h0-0-14~-x-12-14-14h12-14------------------|
A|--------------------------------------------------------|
E|--------------------------------------------------------|

E|----------------------------------------------|
B|---------------14-14--------------------------|
G|--12--12-14-14-14-14-15~-14-14-12-14-12-14-12-|
D|----------------------------------------------|
A|----------------------------------------------|
E|----------------------------------------------|

E|-----------------------------------------------------|
B|-----------------------------------------------------|
G|---14b-14h0-14h0-12-14b-14-14h12-14h12-14h12---------|
D|---------------------------------------------0-----0-|
A|-----------------------------------------------------|
E|-----------------------------------------------------|

E|------------------------------------------|
B|-------------0-0--------------------------|
G|--14r---14-0-0----------14-14-12-12-12-12-|
D|-------------0-0-12--14-14-14-14-14-14-14-|
A|-------------0----------------------------|
E|------------------------------------------|

E|---------------------------------------|--------------------|
B|---------------------------------------|--------------------|
G|---------------------------------------|--------------------|
D|--14~---14/12-12-12/11-11-11/9-9/7-7/6-|--7r--------------0-|
A|---------------------------------------|--------------------|
E|---------------------------------------|--------------------|

E|------------------|------------------|---------12-------|
B|------------------|------------------|------------------|
G|------------------|------------------|------------------|
D|------------------|------------------|----------------5-|
A|------------------|------------------|------------------|
E|------------------|------------------|------------------|

E|-----------------------------|------------------------------|
B|--5---5-5--5-5-5-------------|------------------------------|
G|--5---5-5--5-5-5-2-2--2--2-2-|--------------------7--7--7-7-|
D|--5---5-5--5-5-5-2-2--2--2-2-|--2---2-2--2-2-2-2--7--7--7-7-|
A|--3---3-3--3-3-3-0-0--0--0-0-|--2---2-2--2-2-2-2--5--5--5-5-|
E|-----------------------------|--0---0-0--0-0-0-0--5--5--5-5-|

E|----------------------------|--------------------------------|
B|-5---5-5--5-5-5-------------|--------------------------------|
G|-5---5-5--5-5-5-2-2--2--2-2-|-----------------------7--7-7-7-|
D|-5---5-5--5-5-5-2-2--2--2-2-|--2---2-2--2-2-2-2--7--7--7-7---|
A|-3---3-3--3-3-3-0-0--0--0-0-|--2---2-2--2-2-2-2--5--5--5-5---|
E|----------------------------|--0---0-0--0-0-0-0--5--5--5-5---|

E|----------------------------|--------------------------------|
B|-5---5-5--5-5-5-------------|--------------------------------|
G|-5---5-5--5-5-5-2-2--2--2-2-|-----------------------7--7-7-7-|
D|-5---5-5--5-5-5-2-2--2--2-2-|--2---2-2--2-2-2-2--7--7--7-7---|
A|-3---3-3--3-3-3-0-0--0--0-0-|--2---2-2--2-2-2-2--5--5--5-5---|
E|----------------------------|--0---0-0--0-0-0-0--5--5--5-5---|

E|---------------------------|
B|--5---5-5--5-5-5-----------|
G|--5---5-5--5-5-5-2-2--2--2-|
D|--5---5-5--5-5-5-2-2--2--2-|
A|--3---3-3--3-3-3-0-0--0--0-|
E|---------------------------|

Won?t you believe it
It?s just my luck
(x4)
No recess
(x3)
Won?t you believe it
It?s just my luck
(x4)
No recess
(x3)
You?re in high school again
(x8)
No recess
(x7)

Тональность:

Это должно быть в ТОП-листе! - Топ-лист композиций



Назад
Рекомендуем посмотреть другие песни исполнителя «Nirvana»:

  • Комменты Fb ()
  • Комменты ВК



Добавить в Избранное Браузера
Сохранить здесь Очистить


x

0


+
-

+
-

-

Авторизация





Зарегистрироваться

M

Дата и время

  • 15:38:46
     

Социальные ссылки


Наши приложения

  • Muzbank App Play Market
  • Muzbank Amazon App