MUZBANK


МУЗЫКАЛЬНО-ИНФОРМАЦИОННЫЙ БАНК





NNirvana • Serve The Servants (аккорды и текст - chords & lyrics)


1274

Print

Видео «Serve The Servants (Nirvana)»

Видео клипы к песне подбираются автоматически сайтом youtube. Возможны некоторые несоответствия клипов песне.

↑ Спрятать рекламу ↑





Nirvana
Serve the Servants 
In Utero
1994

This is not really that hard to play as long as you know the song pretty well.
This took me forever so give me a break if its not 100%
Give this a rating so I can know what you think please.
 

Tune down half step

INTRO:

Eb- - - - - - -0 - - - 14- - - - - - 9- - - - - 
Bb- - - - - - 14- - - - - - 14- - - 9- - - - - 
Gb- - - - - -13 - - - - - - - - - - - 9- - - - -
Db- - - - - 12 - - - - - - - - - - - - - - - - - -
Ab- - - - -11 - - - - - - - - - - - - - - - - - - 
Eb - - - -0- - - - - - - - - - - - - - - - - - - -

Eb - - - - - - - - - - - - - - - - - - - - - - - - - - - - - - - - - - - - - - - - - - - - - - - - - - - - - - - - 
Bb - - - - - - - - - - - - - - - - - - - - - - - - - - - - - -3- - - - - - - - - - - - - - - - - - - - - - - - - -
Gb - - - - - - - - 2 - - - - - -2- - - - - - - - - - - - - - - - - - - - - - - - - - - - 3- - - - - - - - - - - - 
Db - - - - - - 1 - - - - - - - - - - 0 - -  - 2 - 2 -2- - - - - - - 2 -2- - - - - - -4 - - - - - - - - - - - 
Ab - - -2- - - - - - - - - 2 - - - - - - - - - - - - - - - - - - - - - - - - - - - - - - 4- - - - - - - - - - - - 
Eb - - - - - - - - - - - - - - - - - - - - - - - - - - - - - - - - - - - - - - -0- - - - 2 - - - - - - - - - - - -

Eb- - - - - - -0 - - 0- - - - - - - - - - - - - - - - - - -0- - - 0 - - - - - - - - - - - - - - - - -
Bb- - - - - - -0 - - 0 - - - - - - - - - - - - - - - - - - -0- - - 0 - - - - - - - - - - - - - - - - -
Gb- - - - - - - - - - - - - - - - - - - - - - - - - - - - - - - - - - - - - - - - - - - - - - - - - - -
Db- - - - - - - - - - - - 4/5- - - - - - - - - - - - - - - - - - - - - - -2p0- - - - - - - - - - - - 
Ab- - - - - - - - - - - - 4/5- - - - - -2- - - - - - - - - - - - - - - - 2p0- - - - - - - - - - - - - 
Eb - - - -2 - - - - - - - - - - - - - - -0- - - - - 0 -  - - - - - - - - - - - - - - - - - - - - - - 

Eb- - - - - - - - - - - - - - - - - - - - - - - - - - - - - - - - - - - - - - - - - - - - - - - - - - - 
Bb- - - - - - - - - - - - - - - - - - - - - - - - - - - -3 - - - - - - - - - - - - - - - - - - - - - - - 
Gb- - - - - - - - -2 - - - - 2- - - - - - - - - - - - - - - - - - - - - - - - - - - -3 - - - - - - - - - 
Db- - - - - - -1 - - - - - - - - 0- - - -2 -2 -2 - - - - - - -2 - 2- - - - - - - 4- - - - - - - - -
Ab- - - 2- 2- - - - - - 2- - - - - - - - - - - - - - - - - - - - - - - - - - - - - - 4- - - - - - -  - 
Eb - - - - - - - - - - - - - - - - - - - - - - - - - - - - - - - - - - - - - - 0- - - -2 - - - - - - - - -

Eb- - - - - - - 0- -0 - 0- - - - - - - - - - - - - - - - - - - - 0- - 0- - - - - - - - - - - - - - 
Bb- - - - - - - 0- -0 - 0- - - - - - - - - - - - - - - - - - - - 0- - 0- - - - - - - - - - - - - - - 
Gb- - - - - - - - - - - - - - - - - - - - - - - - - - - - - - - - - - - - - - - - - - - - - - - - - 
Db- - - - - - - - - - - - - - - -4/5 - - - - - - - - - - - - - - - - - - - - - - 2p0- - - - - - - - - 
Ab- - - - - - - - - - - - - - - -4/5 - - - - - - 2- - - - - - - - - - - - - - - 2p0 - - - - - - - - - 
Eb - - - - -2 - - - - - - -  - - - - - - - - - - -0 - - 0- - 0- - - - - - - - - - - - - - - - - - - - -

VERSE:

Eb- - - - - - - - - - - - - - - - - - - - - - - - - - - - - - - - - - - - - - - - - - - - - - - - - - - 
Bb- - - - - - - - -0 - - - - - - - - - - - - - - - - - - - - - - -3 - - - - - - - - - - - - - - - - - - - 
Gb- - - - - - - - - - - 2- - - - - - -2 - - - - - - - - - - - - - - - - - - - - - - - - - - - - - - - - - 
Db- - - - - - 1- - - - - - - - - - - - - -0 - - - -2 - 2- -2 - - - - - - -2 - 2- - - - - - - - - - - - 
Ab- - - - 2- - - - - - - - - - - 2- - - - - - - - - - - - - - - - - - - - - - - - - - - - - - - - - - - - 
Eb - - - - - - - - - - - - - - - - - - - - - - - - - - - - - - - - - - - - - - - - - - - 0- - - - - - - -
              Teenage angst    has         paid off      well

Eb- - - - - - - - - - - - - -0-- - - -0 - - - - - - - - - - - - - - - - - - - - - - - - 0 - 0 - - - - - 
Bb- - - - - - - - - - - - - -0- - - - 0 - - - - - - - - - - - - - - - - - - - - - - - - 0 - 0 - - - - - 
Gb- - - - - - - - - - - - - - - - - - - - - - - - - - - - - - - - - - - - - - - - - - - - - - - - - - - -
Db- - - - - -4 - - - - - - - - - - - - - - - - - 4/5- - - - - - - - - - - - - - - - - - - - - - 2p0 - 
Ab- - - - - -4 - - - - - - - - - - - - - - - - - 4/5 - - - - - - - - - - -2- - - - - - - - - - -2p0 - 
Eb - - - - - 2 - - - 2 - - - - - - - - - - - - - - - - - - - - - - - - - - 0 - -0- - - - - - - - - - -
              Now I 


------------------------LYRICS------------------------
Teenage angst has paid off well
Now I'm bored and old
Self-appointed judges judge
More than they have sold

If she floats than she is not
A witch like we had thought
A down payment on another
One at salem's lot

Serve the servants - oh no
Serve the servants - oh no
Serve the servants - oh no
That legendary divorce is such a bore

As my bones grew they did hurt
They hurt really bad
I tried hard to have a father
But instead I had a dad

I just want you to know that I
Don't hate you anymore
There is nothing I could say
That I haven't thought before

Serve the servants - oh no
Serve the servants - oh no
Serve the servants - oh no
Serve the servants - oh no
That legendary divorce is such a bore

Serve the servants - oh no
Serve the servants - oh no
Serve the servants - oh no
Serve the servants - oh no
That legendary divorce is such a bore

Тональность:

Это должно быть в ТОП-листе! - Топ-лист композиций



Назад
Рекомендуем посмотреть другие песни исполнителя «Nirvana»:

  • Комменты Fb ()
  • Комменты ВК



Добавить в Избранное Браузера
Сохранить здесь Очистить


x

0


+
-

+
-

-

Авторизация





Зарегистрироваться

M

Дата и время

  • 14:19:57
     

Социальные ссылки


Наши приложения

  • Muzbank App Play Market
  • Muzbank Amazon App