MUZBANK


МУЗЫКАЛЬНО-ИНФОРМАЦИОННЫЙ БАНК





NNirvana • Turnaround (аккорды и текст - chords & lyrics)


549

Print

Видео «Turnaround (Nirvana)»

Видео клипы к песне подбираются автоматически сайтом youtube. Возможны некоторые несоответствия клипов песне.

↑ Спрятать рекламу ↑





 


Nirvana
Turnaround
   ----------
Bass Intro
G-----------------------------------|
D-----------------------------------|
A---/7-7-7-7-7-7-7--0-0-0-0-0-0-0---| 
E-----------------------------------|

G------------------------------------|
D------------------------------------|
A-5-5-5---3-3-2--0-0-0-0-0-0-0-0-0---|
E------------------------------------|

G------------------|
D------------------|
A-5-5-5------------|
E----------3-2-0---|

G-----------------------------------|
D-----------------------------------|
A-----------------------------------|
E-1-1-1--3-3-3--(5-5-5-5-5-5-5-5)---|
 


Take a step outside yourself 
And turn around 
Take a look at who you are 
It's pretty scary 
So silly 
Revolting 
You're not much 
You can't do anything 

Take a step outside the city 
And turn around 
Take a look at what you are 
It is revolting 
You're really nowhere 
So wasteful 
So foolish 
Poppycock 

Who said don't look back? 
Don't believe 'em 
Go for that crazy sounding restaurant 
'Couse they're gonna try and get behind you 
Don't you let them do it 
You know what I'm talking about? 
You hear me talking? 
You hear me talking? 

It's pretty scary it's so revolting 

Take a step outside the country 
And turn around 
Take a look at what you are 
It is amazing 
Take a good look 
You're no big deal 
You're so petty 
It's lots 

Take a step outside the planet 
Turn around and around 
Take a look at where you are 
It's pretty scary


/Verse:/

This is just a combination of the intro bass/guitar parts

Take a step outside yourself...and turnaround.....
|----------------------------------------------|
|----------------------------------------------|
|--------------------8-9-9-9-9-----------------|
|----------------------------------------------|
|----------------------------------------------|
|-0-0-0-0-0-0-0-0-0----------------------------|
                    (bend the 9 up a half step)

/Chorus:/

So silly....          Revolting...
|--------------------|-------------------------|
|--------------------|-------------------------|
|---7-7-5-5-5--------|---7-7-5-5-5-------------|
|---7-7-5-5-5-7------|---7-7-5-5-5-5-----------|
|---5-5-3-3-3-7------|---5-5-3-3-3-5-----------|
|-------------5------|-------------3-----------|

You're not much...     You can't do anything...
|--------------------|-------------------------|
|--------------------|-------------------------|
|--------------------|-------------7-----------|
|---3-3-5-5-5-7------|---3-3-5-5-5-7-----------|
|---3-3-5-5-5-7------|---3-3-5-5-5-5-----------|
|---1-1-3-3-3-5------|---1-1-3-3-3-------------|

Ugh!!!!!!!!!!
|--------------------|
|--------------------|
|-------------5------|
|---3-3-5-5-5-5------|
|---3-3-5-5-5-3------|
|---1-1-3-3-3--------|

Тональность:

Это должно быть в ТОП-листе! - Топ-лист композиций



Назад
Рекомендуем посмотреть другие песни исполнителя «Nirvana»:

  • Комменты Fb ()
  • Комменты ВК



Добавить в Избранное Браузера
Сохранить здесь Очистить


x

0


+
-

+
-

-

Авторизация





Зарегистрироваться

M

Дата и время

  • 16:33:47
     

Социальные ссылки


Наши приложения

  • Muzbank App Play Market
  • Muzbank Amazon App