MUZBANK


МУЗЫКАЛЬНО-ИНФОРМАЦИОННЫЙ БАНК





NNo Doubt • Dont Speak (аккорды и текст - chords & lyrics)


1148

Print

Видео «Dont Speak (No Doubt)»

Видео клипы к песне подбираются автоматически сайтом youtube. Возможны некоторые несоответствия клипов песне.

↑ Спрятать рекламу ↑






Вступление (Аккустика)

1:--------------------
2:-5--5--5--5---------
3:-6--6--6--5--------- x2
4:--6--6--6--6--------
5:--------------------
6:--------------------


Куплет (Аккустика)

1:-------------------------------------------------------
2:-5--5--5--5---4--4--4--4---2--2--2--2---4--4--4--4--5--
3:-6--6--6--6---4--4--4--4---2--2--2--2---4--4--4--4--6--
4:--6--6--6--6---4--4--4--4---2--2--2--2---4--4--4--4--6-
5:-------------------------------------------------------
6:-------------------------------------------------------


Припев (Легкий дисторшен)

  F# D7 E7 Cm# H cm# F#  E7 Cm#
1:-9--5-7--9---7~9~~~9--(7-9)-------
2:-10-7-9--9---7~9~-~10-(7-9)-------
3:-11-5-7--10--7~10~~11-(7-10)------
4:-11-7-9--11--9~11~~11-(9-11)------
5:-10-5-7--11--9~11~~10-(9-11)------
6:-10-5-7--9---7~9~~~10-(7-9)-------

Когда идет соло - ритм-гитара играет Куплет


Потом до конца играть Припев

Тональность:

Это должно быть в ТОП-листе! - Топ-лист композиций



Назад
Рекомендуем посмотреть другие песни исполнителя «No Doubt»:

  • Комменты Fb ()
  • Комменты ВК



Добавить в Избранное Браузера
Сохранить здесь Очистить


x

0


+
-

+
-

-

Авторизация





Зарегистрироваться

M

Дата и время

  • 11:47:19
     

Социальные ссылки


Наши приложения

  • Muzbank App Play Market
  • Muzbank Amazon App