MUZBANK


МУЗЫКАЛЬНО-ИНФОРМАЦИОННЫЙ БАНК





NNoFX • Its My Job To Keep Punk Rock Elite (аккорды и текст - chords & lyrics)


573

Print

Видео «Its My Job To Keep Punk Rock Elite (NoFX)»

Видео клипы к песне подбираются автоматически сайтом youtube. Возможны некоторые несоответствия клипов песне.

↑ Спрятать рекламу ↑





 


band:NOFX
song:its my job to keep punk rock elite
album:so long and thanks for all the shoes
tabbed by:hommie timmy_the_turttle@msn.com

intro:
cool feedback and then

b--------------------------
g--555555555555------------
d--555555555555------------
a--333333333333------------
e--------------------------

guitar 1
b------------------------------------------------
g-----------1515----1010-----------------------
d------1010-1515-88-1010--------------------------
a------1010-1313-88--8-8--------------------
e-------8-8------66-------------------------------
guitar2
b-----------------------------------------------
g---------10108--------10108--1515--1010--------
d--1010~--1010810~-----10108101515881010--------
a--1010~---8-8610~------8-8610131388-8-8--------
e---8-8~--------8~-----------8----66------------

indiscriminate.....
b------------------------------------------------------------------
g-55555510101010--------888888888855555555-------4444444488888888--
d-555555101010106666666688888888885555555566666664444444488888888--
a-333333-8-8-8-86666666666666666663333333366666662222222266666666--
e---------------44444444------------------4444444------------------

you 

Тональность:

Это должно быть в ТОП-листе! - Топ-лист композиций



Назад
Рекомендуем посмотреть другие песни исполнителя «NoFX»:

  • Комменты Fb ()
  • Комменты ВК



Добавить в Избранное Браузера
Сохранить здесь Очистить


x

0


+
-

+
-

-

Авторизация





Зарегистрироваться

M

Дата и время

  • 13:54:05
     

Социальные ссылки


Наши приложения

  • Muzbank App Play Market
  • Muzbank Amazon App