MUZBANK


МУЗЫКАЛЬНО-ИНФОРМАЦИОННЫЙ БАНК





NNoFX • Piece (аккорды и текст - chords & lyrics)


401

Print

Видео «Piece (NoFX)»

Видео клипы к песне подбираются автоматически сайтом youtube. Возможны некоторые несоответствия клипов песне.

↑ Спрятать рекламу ↑





 


PIECE-NOFX


By:Stash Fortier(stash@nt.net)

INTRO
e|--------------------------------------------------------------------|
B|--------------------------------------------------------------------|
G|-5-5-5-5------------------------------------------------------------|
D|-5-5-5-5--8-8-8-8---7-6-7-------------------------------------------|
A|-3-3-3-3--8-8-8-8---7-6-7-------------------------------------------|
E|----------6-6-6-6---5-4-5-------------------------------------------|

PART 1
e|--------------------------------------------------------------------|
B|--------------------------------------------------------------------|
G|-5-5-5-5------------------------------------------------------------|
D|-5-5-5-5--8-8-8-8---7-6-7------X4-----------------------------------|
A|-3-3-3-3--8-8-8-8---7-6-7-------------------------------------------|
E|----------6-6-6-6---5-4-5-------------------------------------------|

PART 2
e|--------------------------------------------------------------------|
B|--------------------------------------------------------------------|
G|-5-5-5-5-------------------5-5-5--4--6-4----------------------------|
D|-5-5-5-5--8-8-8-8---7-7-7--5-5-5--4--6-4-7--------------------------|
A|-3-3-3-3--8-8-8-8---7-7-7--3-3-3--2--4-2-7--------------------------|
E|----------6-6-6-6---5-5-5----------------5--------------------------|

PART 3
e|--------------------------------------------------------------------|
B|--------------------------------------------------------------------|
G|------------------5-7--------------------7-9--------------------9-11|
D|-3-3-3-3-3-3-3-3--5-7---3-3-3-3-3-3-3-3--7-9---3-3-3-3-3-3-3-3--9-11|
A|-3-3-3-3-3-3-3-3--3-5---3-3-3-3-3-3-3-3--5-7---3-3-3-3-3-3-3-3--7-9-|
E|-1-1-1-1-1-1-1-1--------1-1-1-1-1-1-1-1--------1-1-1-1-1-1-1-1------|
  PM..............       PM..............

e|--------------------------------------------------------------------|
B|--------------------------------------------------------------------|
G|--------------------------------------------------------------------|
D|-5-3-2----X2--------------------------------------------------------|
A|-5-3-2--------------------------------------------------------------|
E|-3-1-0--------------------------------------------------------------|

PART 4
e|--------------------------------------------------------------------|
B|--------------------------------------------------------------------|
G|-7-7-7-7-7-7-7-7--11-11-11-11-11-11-11-11---7-7---7-5-7-------------|
D|-7-7-7-7-7-7-7-7--11-11-11-11-11-11-11-11---7-7---7-5-7----x4-------|
A|-5-5-5-5-5-5-5-5--9--9--9--9--9--9--9--9----5-5---5-3-5-------------|
E|--------------------------------------------------------------------|


REPEAT PART 1, PART 2, PART 3, PART 4

END RIFF
e|--------------------------------------------------------------------|
B|--------------------------------------------------------------------|
G|-7-5-7--7-5-7-------------------------------------------------------|
D|-7-5-7--7-5-7-------------------------------------------------------|
A|-5-3-5--5-3-5--7-5-7------------------------------------------------|
E|--------------------------------------------------------------------|

LYRICS

You fight for peace, but w 

Тональность:

Это должно быть в ТОП-листе! - Топ-лист композиций



Назад
Рекомендуем посмотреть другие песни исполнителя «NoFX»:

  • Комменты Fb ()
  • Комменты ВК



Добавить в Избранное Браузера
Сохранить здесь Очистить


x

0


+
-

+
-

-

Авторизация





Зарегистрироваться

M

Дата и время

  • 05:43:16
     

Социальные ссылки


Наши приложения

  • Muzbank App Play Market
  • Muzbank Amazon App