MUZBANK


МУЗЫКАЛЬНО-ИНФОРМАЦИОННЫЙ БАНК





NNoFX • Thank God Its Monday (аккорды и текст - chords & lyrics)


410

Print

Видео «Thank God Its Monday (NoFX)»

Видео клипы к песне подбираются автоматически сайтом youtube. Возможны некоторые несоответствия клипов песне.

↑ Спрятать рекламу ↑





 


Nofx - Thank GOd Its Monday
intro
E--------------------------------------------------------|
B--------------------------------------X-----------------|
G--------------------------------------X10101514151514---|
D--------------------------------------X-----------------|
A--------------------------------------X-8-81312131312---|
E--------------------------------------------------------|
intro
E--------------------------------------------------------|
B--------------------------------------------------------|
G--10101015151515141514---------------101010151515-------|
D--10101015151515141514---------------101010151515-------|
A---8-8-813131313121312----------------8-8-8131313-------|
E--------------------------------------------------------|

E------------------------------------|
B------------------------------------|
G--10101015151515141514-1010101515---|
D--10101015151515141514-1010101515---|
A---8-8-813131313121312--8-8-81313---|
E------------------------------------|
verse 
E---------------------------5-------------------|
B---------------------------6-------------------|
G--10--------------10-------7-------------------|
D--10------10------10-------7-------8------10---|
A---8------10-------8-------5-------8------10---|
E-----------8-----------------------6-------8---|

E----------------------------------------------|
B----------------------------------------------|
G--10101015151515141514-10101015151515141514---|
D--10101015151515141514-10101015151515141514---|
A---8-8-813131313121312--8-8-813131313121312---|
E----------------------------------------------|
bridge  
E---------------------------------------------------------------->
B---------------------------------------------------------------->
G----*-------*-----101010-X101010-X------------------------------>
D---5-------8------10-810-X10-810-X------------------------------>
A---5-------8-------8-8-8-X-8-8-8-X10b11-10k--10k10k-10k-10k----->
E---3-------6---------------------------------------------------->

E---------------------------------------------------------------->
B----*--------------------------------------------------------18->
G--12--------*-----101010-X101010-------10h1210h1210h12/14-17-17->
D--12-------8------10-810-X10-810--10h12------------------------->
A--10-------8-------8-8-8-X-8-8-812------------------------------>
E-----------6---------------------------------------------------->

>---------------------------------------------------------------|
>----------------------------------11b13-11b13-11b13-11-9-------|
>----*-------*-----101010-X101010-X-----------------------------|
>---5-------8------10-810-X10-810-X-----------------------------|
>---5-------8-------8-8-8-X-8-8-8-X-----------------------------|
>---3-------6---------------------------------------------------|

>--------------------------------111311--1311-------------------|
>----*---------------------------------13----131211-9-----9-----|
>--12--------*-----101010-X101010--------------------10-8--10---|
>--12-------8------10-810-X10-810-------------------------------|
>--10-------8-------8-8-8-X-8-8-8-------------------------------|
>-----------6---------------------------------------------------|

E----------10*----------|
B----*-----11-----------|
G--12------12--------#--|
D--12------12------10---|
A--10------10------10---|
E-------------------8---|
verse2
E---------------------------0---------------------------|  
B---------------------------0----------------*----------|
G-----------7---------------0-------5-------7-------7---|
D---5-------7-------5-------2-------5-------7-------7---|
A---5-------5-------5-------2-------3-------5-------5---|
E---3---------------3-------0---------------------------|
outro
E-|-------------------------------|-------------------------------|
B-|--*-------*---------------*----|-------------------------------|
G-|12------10--------*------5-----|-7-7------------------101112--|
D-|12------10------10-------5-----|-7-7------------------101112--|
A-|10-------8-------7-------3-----|-5-5-------------------8-910--|
E-|------------2X-----------------|-------------------------------|

E-|-------------------------------|----------/--3X---------------|
B-|--*-------*---------------*----|-------------------------------|
G-|12------10--------*------5-----|-7-7------121212-X1212101112--|
D-|12------10------10-------5-----|-7-7------121012-X1210101112--|
A-|10-------8-------7-------3-----|-5-5------101010-X1010-8-910--|
E-|------------2X-----------------|-------------------------------|
I 

Тональность:

Это должно быть в ТОП-листе! - Топ-лист композиций



Назад
Рекомендуем посмотреть другие песни исполнителя «NoFX»:

  • Комменты Fb ()
  • Комменты ВК



Добавить в Избранное Браузера
Сохранить здесь Очистить


x

0


+
-

+
-

-

Авторизация





Зарегистрироваться

M

Дата и время

  • 23:22:54
     

Социальные ссылки


Наши приложения

  • Muzbank App Play Market
  • Muzbank Amazon App