MUZBANK


МУЗЫКАЛЬНО-ИНФОРМАЦИОННЫЙ БАНК





NNoize MC • Палево (аккорды и текст - chords & lyrics)


1689

Print

Видео «Палево (Noize MC)»

Видео клипы к песне подбираются автоматически сайтом youtube. Возможны некоторые несоответствия клипов песне.

↑ Спрятать рекламу ↑





 


Палево 

Вступление и интерлюдии: 

e|----------------------------------------------------------------------------------| 
B|----5-5-5-5-5-5-3-1--1-3-5-1----5-5-5-5-5-5-3-1--1-3-5-5b(1/2)r---| 
G|----5-5-5-5-4-5-4-2--2-2---------5-5-5-5-4-5-4-2--2-2-----------------| 
D|----------------------------------------------------------------------------------| 
A|----------------------------------------------------------------------------------| 
E|----------------------------------------------------------------------------------| 

e|----------------------------------------------------------------------------| 
B|----5-5-5-5-5-5-3-1--1-3-5-1-----5-5-5-5-5-5-3-5~--------------| 
G|----5-5-5-5-4-5-4-2--2-2----------5-5-5-5-4-5-4-5~---------------| 
D|----------------------------------------------------------------------------| 
A|----------------------------------------------------------------------------| 
E|----------------------------------------------------------------------------| 


Аккорды в течение всей песни следующие: Am, F, C, G. В оригинале первая часть куплетов играется просто F затем G (желательно баре) с паузами вместо Am и С. 

Палево 

Am                          F
Палево, давно пора было сваливать 
C                   G
Не понимаю я, чего ждали вы 
Ваши предки, видимо, родом из Таллина 
Побежали, иначе пропали мы 

Ведь за толстыми стенами отдела 
Провести бы эту ночь не хотелось 
Что в такой ситуации делать?
Выход один - ускорять свое тело 

Палева не было бы, если шмали мы 
Предпочитали бы пиво с рыбой вяленой 
Менты бы не стремали нас, не принимали бы 
Не заморачивали бы, не напрягали бы 

Но кто-то покупает, кто-то барыжит 
Кто-то догоняет, кто-то мылит лыжи 
Дыхалка растаманам не для кроссов дана 
Да и бегать неудобно в широких штанах, но... 

              Am                      F
	Вавилон не получит нас живьем 
             C                          G
	Прием не состоится ментам в облом 
	Вавилон не отыщет нас днем с огнем 
	Камера не дом нам, нам не дом 

             Am                       F
	Нам не дом, нам не дом, нам не дом, нам! 
             C                          G                     
	Нам не дом, нам не дом, нам не дом, yo! 
	Нам не дом, нам не дом, нам не дом, нам! 
	Камера нам, не до-ом!! 
	Не до-ом! 

Палево, атмосфера накалена 
Как в Союзе во времена Сталина 
Да бы жертвами репрессий не стали мы 
Надо чтоб асфальт подошвы плавили 

Плевать на дорожного движения правила, 
Пусть водители злые громко сигналят нам 
Света зеленого не подождали мы 
Из-за стаффа зеленого на кармане, бля 

Пока сотрудники тупые как валенок 
Светофор переключали мы вваливали 
По весенней грязи, по проталинам 
И скорость ни на метр в час не убавили 

Продолжая наше пешее ралли, 
Мы мягко говоря, пиздец как устали, 
Но ноги по-прежнему покоя не давали нам, 
Пото-потому что па-па-па-палево.

	припев.
 

Тональность:

Это должно быть в ТОП-листе! - Топ-лист композиций



Назад
Рекомендуем посмотреть другие песни исполнителя «Noize MC»:

  • Комменты Fb ()
  • Комменты ВК



Добавить в Избранное Браузера
Сохранить здесь Очистить


x

0


+
-

+
-

-

Авторизация





Зарегистрироваться

M

Дата и время

  • 22:22:01
     

Социальные ссылки


Наши приложения

  • Muzbank App Play Market
  • Muzbank Amazon App