MUZBANK


МУЗЫКАЛЬНО-ИНФОРМАЦИОННЫЙ БАНК





NNoize MC • Выдыхай (аккорды и текст - chords & lyrics)


1344

Print

Видео «Выдыхай (Noize MC)»

Видео клипы к песне подбираются автоматически сайтом youtube. Возможны некоторые несоответствия клипов песне.

↑ Спрятать рекламу ↑






 


Припев. 

проигрыш: Em-C D-Hm (несколько раз)

1|--------10-----------------7--------| 
2|-8---8-------8------7---7-------7---| 
3|---9-------9---9------7-------7---7-|


Перебор:
E|-----------------------------------------|
H|------0---0---0-1-0-------0---0---1--0---|
G|-----------------------------------------|
D|----2---2---0-------2---2---2---0------2-|
A|----------------------3------------------|
E|--0--------------------------------------|

|------------------------|----------------|
H|------0---0---0--3-------0---0---1--0----|
|-------------------0---------------------|
D|----2---2---0----------2---2---0-------2-|
|---------------------3-------------------|
E|--0--------------------------------------|

|-------------------------------------------|
|-------------------------------------------|
|-----2---2---2--0---------------------2--0-|
|---2---2---2--------4--------4---4---4-----|
|-0-------------------------4---4---4-------|
|-----------------------2-------------------|

|----------------------------------------------|
|----------------------------------------------|
|------0----------0---0-----2--2--0----------0-|
|---2-----0----2---------2-----------4----4----|
|------------3-------------------------2-------|
|-0--------------------------------------------|
intro: Em C Em C Am Hm Em-C D-Hm

Em                           C
  Затянись мною в последний раз, 
                        Em
Ткни меня мордой в стекло,
		       C 
Дави меня, туши мою страсть. 
                Am
Буду дымить назло. 
                                  Hm
Боль на фильтре грязным бурым пятном - 
                             Em
Все, что мне от тебя останется.
	C           D 
Урна - мой будущий дом, 
               Hm          Em
И вряд ли мне там понравится. 

Серым пеплом осыпятся вниз 
Те мечты, что не сбудутся никогда. 
Меня вряд ли раскурят на бис. 
Шанс, если и есть, то один из ста. 
Тебе травиться никотином моим, 
Тебе кашлять моими смолами. 
Выдыхай скорей мой последний дым 
И закрывай окно, а то холодно. 

    Em C    DHm     Em      C
	Выдыхай скорей мою душу наружу - ей тесно,
      D             Hm              Em
	В твоих легких так мало места. 
    Em C    DHm     Em      C
	Выдыхай скорей мою душу наружу - ей тесно, 
      D             Hm              C
	В твоих легких так мало места. 
	Но если честно,
             G             Em
	во всем виноват я сам.

проигрыш: Em G Em G Em G D/F#

Теперь все будет так, как ты хотела,
Под одним пледом никогда не окажутся наши два тела,
Я уже никого не виню почти,
Мне уже почти наплевать, кто прав,
Спокоен как удав.
Не жди обвинений, бегущих по проводам,
Время брошенных трубок давно позади,
Я уже не психую, почти не ревную
При встрече уже не ищу твои губы,
И даже недавно кого-то драл,
Правда, кончить, как ни старался, не смог,
Всю дорогу тебя представлял,
А на утро в зеркало отправил плевок.

припев....
Em
Наша лестница в небо оказалась расшатанной стремянкой, 
C
Годной лишь на то, чтобы достать с антресоли банку. 
Em
Но я готов был и по ней карабкаться к облакам 
C
Назло запретам и закрытым изнутри замкам. 
Am
Порой казалось - цель близка, скоро доползу. 
Hm
Я с собой тебя звал, но ты оставалась внизу. 
Em                   C
Поднимала глаза, просила вернуться назад, 
D                       Hm
А я не слезал, все твердил тебе про небеса. 

Думал, что сам могу решать за двоих людей. 
Думал, что нам станет лучше от моих идей. 
И цепляясь за надежду, как за одежду репей, 
Становился дальше от тебя еще на ступень. 
Но лестница в небо оказалась расшатанной стремянкой, 
Годной лишь на то, чтоб достать с антресоли банку. 
Возьму подмышку, отнесу в кладовку - пусть пылится. 
Прости за все и, ради Бога, перестань мне сниться. 

	Припев.

проигрыш: Em-C D-Hm (несколько раз)

1|--------10-----------------7--------|
2|-8---8-------8------7---7-------7---|
3|---9-------9---9------7-------7---7-|


------------------------------------------------
 

Тональность:

Это должно быть в ТОП-листе! - Топ-лист композиций



Назад
Рекомендуем посмотреть другие песни исполнителя «Noize MC»:

  • Комменты Fb ()
  • Комменты ВК



Добавить в Избранное Браузера
Сохранить здесь Очистить


x

0


+
-

+
-

-

Авторизация





Зарегистрироваться

M

Дата и время

  • 11:32:53
     

Социальные ссылки


Наши приложения

  • Muzbank App Play Market
  • Muzbank Amazon App