MUZBANK


МУЗЫКАЛЬНО-ИНФОРМАЦИОННЫЙ БАНК





NN.R.M. • Песьня падземных жыхароу (аккорды и текст - chords & lyrics)


1034

Print

Видео «Песьня падземных жыхароу (N.R.M.)»

Видео клипы к песне подбираются автоматически сайтом youtube. Возможны некоторые несоответствия клипов песне.

↑ Спрятать рекламу ↑






[guitar:]

e|--------------------------0-------------|
b|--------------------6-------3-----------|
G|-----2-------5----5-----------2---------|
D|---2-------5----3------0----------------|
A|-0------3-------------------------------|
E|----------------------------------------|
   Am     C       F      Dadd9
 
e|------------------------------------------|
b|----------------------6-----3-------------|
G|-----2-------5------5---------------------|
D|---2-------5---5--3------0----------------|
A|-0------3---------------------3-2---------|
E|------------------------------------------|
   Am     C         F      Dadd9

[bass:]

G|---------------------------------|
D|---2-------5---------------------|
A|-0---0--3----3----5--------------|
E|----------------3---3--1--2-3-4--|
   Am     C       G      F

G|---------------------------------|
D|---2-------5-----------0---------|
A|-0---0--3----3----5------3-2h3---|
E|----------------3---3------------|
   Am     C       G      Dm


[Solo:]

e|------------------------------------------|
b|------------------------------------------|
G|------2-0-2-3-2-----------2-0-------------|
D|------------------------------3-2-3-------|
A|-0-------------------0--------------------|
E|------------------------------------------|
   Am C   F     Dadd9  Am C   F     Dadd9

e|--------------------------------------------|
b|--------------------------------------------|
G|------2-0-2-3-2-----------2-0---------------|
D|------------------------------3-2-3----2-0--|
A|-0-------------------0----------------------|
E|--------------------------------------------|
   Am C   F     Dadd9  Am C   F     Dadd9  Am

[Куплет.]

   Am      C      F        Dadd9  Am C F Dadd9
У нашай краiне нiколi ня узыйдзе сонца.
У нашай краiне нiколi ня узыйдзе месяц.
У нашай краiне нiколi ня бачна зорау.
   F       E      C       G          Am C Am C
У нашай краiне нiколi ня будзе сьвятла.

Guitar solo (во время куплета):

G|----------------------------------------|
D|--------3-----0-------------3-----0-----|
A|-0-------------------0--3---------------|
E|----------------------------------------|
   Am C   F     Dadd9  Am C   F     Dadd9

[Припев:]

 D5              B5 G5
Мы жывем пад зямлёю,
 D5             B5  G5
Мы жывем пад асфальтам,
   D5      B5      F5  C5
I нам з табою ня трэба
 D5      B5      F5  C5
Лiтасьцi i шкадаваньня.
Мы жывем пад зямлёю,
Мы пацукi ды мышы.
Мы добра бачым у цемры,
Мы чуем кожны шолах.

Solo (wah-wah):

e|------------------5-----------------5--9-11--11-11-|
b|-(7)b8---5----------5---(7)b8-(7)b8-5-----------11-|
G|-----------7---------------------------------------|
D|-------------7-5-----------------------------------|
A|---------------------------------------------------|
E|---------------------------------------------------|

[Куплет:]

У нашай краiне ня чутна урачыстых гiмнау,
У нашай краiне няма праграмы навiнау.
У нашай краiне ня трэба анкеты зь пячаткай,
У нашай краiне няма палымяных прамоу.

Тональность:

Это должно быть в ТОП-листе! - Топ-лист композиций



Назад
Рекомендуем посмотреть другие песни исполнителя «N.R.M.»:

  • Комменты Fb ()
  • Комменты ВК



Добавить в Избранное Браузера
Сохранить здесь Очистить


x

0


+
-

+
-

-

Авторизация





Зарегистрироваться

M

Дата и время

  • 01:28:44
     

Социальные ссылки


Наши приложения

  • Muzbank App Play Market
  • Muzbank Amazon App