MUZBANK


МУЗЫКАЛЬНО-ИНФОРМАЦИОННЫЙ БАНК





NN.R.M. • Простыя словы (аккорды и текст - chords & lyrics)


4540

Print

Видео «Простыя словы (N.R.M.)»

Видео клипы к песне подбираются автоматически сайтом youtube. Возможны некоторые несоответствия клипов песне.

↑ Спрятать рекламу ↑





guitar 1 (с каподастром на 7-ом ладу):

e|-----7-----------7-----------------7---------------7---------|
b|---------8------------10---------8-----8---------8-----8-----|
G|-------7---7-------7-----7-----7-----7---7-----9-----9---9---| (x2)
D|--------------------------------------------10---------------|
A|-10-----------9-------------7--------------------------------|
E|-------------------------------------------------------------|
   G            D2/F#         Em7             C+7

guitar 2 (со второго раза):

e|-------3-------------------------0---------------------------|
b|------3-------------------------3-----------------0----------|
G|-----0-------------------------0----------------0------------|
D|----0-------------------------0---------------2--------------|
A|--2-----------0--------------2----------0-2-3----------------|
E|-3--------------------------0--------------------------------|
   G            D2/F#         Em7             C+7

[Куплет: ]
  G              D2/F#               
Простыя словы, простыя рэчы:         
  Em7           C+7                  
Хлеб на стале, полымя у печы.        
Гэта так проста, гэта так добра,     
Як з галавою залезці пад коудру      

[Припев (х2): ]                           
  G         D2/F#    
Простыя словы,
  Em7      C+7
Простыя рэчы. 

Прыцемкам сінім зімовай парою
у доме бацькоускім усё так знаёма.
Ёсць чым сагрэцца, ёсць дзе схавацца
у доме бацькоускім, у матчынай хаце

[Припев. ]

усё так надзейна, усё так грунтоуна
Што тут дадаць - хiба, что нічога.
Можна жыць далей, дзень прыйдзе новы
Дабранач, паненкі! Дабранач панове!

[Припев. ]

[Solo: ]

e|--------------------------------sl----------sl-------------------|
b|-----------5-6-8-8-8-8-8-8-7-7-7--(10)-10-10--(12)-12-12-12-11-8-|
G|-7-5-4-5-7-------------------------------------------------------|
D|-----------------------------------------------------------------|
A|-----------------------------------------------------------------|
E|-----------------------------------------------------------------|

e|--------------------------sl--------------------------------------2-3-|
b|-8-7h8p7p5h7p5p0h3-5-7-(7)--8-------------------------------3-3-5-----|
G|------------------------------9-7-7-5-4-2h4-2---------2-4-5-----------|
D|----------------------------------------------5-5-4-5-----------------|
A|----------------------------------------------------------------------|
E|----------------------------------------------------------------------|

e|-3-5-5-5-7-7-7-10-10-10-8-7h8p7p5h7-5-7-8-8-8-10-10-10-|
b|-------------------------------------------------------|
G|-------------------------------------------------------|
D|-------------------------------------------------------|
A|-------------------------------------------------------|
E|-------------------------------------------------------|

e|---------------sl-------------------7-7-7------------------------2-3--3-|
b|-10-8-8-8---(8)--10-10-8-8-8-7-7--7-------10-8-7h8p7p5h7p5p0h3-5--------|
G|----------7-------------------------------------------------------------|
D|------------------------------------------------------------------------|
A|------------------------------------------------------------------------|
E|------------------------------------------------------------------------|

Тональность:

Это должно быть в ТОП-листе! - Топ-лист композиций



Назад
Рекомендуем посмотреть другие песни исполнителя «N.R.M.»:

  • Комменты Fb ()
  • Комменты ВК



Добавить в Избранное Браузера
Сохранить здесь Очистить


x

0


+
-

+
-

-

Авторизация





Зарегистрироваться

M

Дата и время

  • 10:19:40
     

Социальные ссылки


Наши приложения

  • Muzbank App Play Market
  • Muzbank Amazon App