MUZBANK


МУЗЫКАЛЬНО-ИНФОРМАЦИОННЫЙ БАНК





OOasis • Do You Know What I Mean? (аккорды и текст - chords & lyrics)


626

Print

Видео «Do You Know What I Mean? (Oasis)»

Видео клипы к песне подбираются автоматически сайтом youtube. Возможны некоторые несоответствия клипов песне.

↑ Спрятать рекламу ↑





INTRO 0:41/2 , 0:47 , 0:52, 0:53/4 , 0:58
G|---------------------------------------------------------
D|---------------------------------------------2/4--4--4-2-
A|---------------------------------------------------------
E|--------2--------0--2------0----2--------0-2-------------

----------------------------------|
----------------------------------|
--5----5--3--/7--7----/14---------|
-----------------------------14⁄--|

VERSE (main theme)
|-------------------------------------------------------------|
|-------------------------------------------------------------|
|----------------------------------------------2-2-2-2--2-2-2-|
|-0--2--2--2-2-2-2-(/)5--5--5-5-(2)--0--0--0-2----------------|

Prechorus ('I met my maker i made him cry')
|--------------------------------------------------------|
|--------------------------------------------------------|
|-----------------------------------------2-2-0-2--2-2-2-|
|-0--2--2--2-2-2-0-2--2--2-2-0--0--0--0-0----------------|

lead to the chorus!
|-----------------------------------------------------------|
|-----------------------------------------------------------|
|-5--5--5--5-5-5/7--7--7--7-7-7/9--9--9--9-9-9-9-9-9--9-9-9-|
|-----------------------------------------------------------|

Chorus (same as the main theme)
|-----------------------------------------------------------|
|-----------------------------------------------------------|
|------------------------------------------2-2-(0)-2--2-2-2-|
|-0--2--2--2-2-2/3--5--5--5-5-2--0--0--0-2------------------|

VERSE (with no singin yet, just "yeah yeah")
prechorus

lead to the chorus
NOTE: There may be too less of those '14s' just use your instic!
|--------------------------------------------------------------
|--------------------------------------------------------------
|-5--5--5--5-5-5/7--7--7--7-7-7/14--14--14--14-14-14-14-14-14--
|--------------------------------------------------------------

---------------------------------------------|
---------------------------------------------|
--14-14-14-12-14-14--14--14-14-12⁄--7/--14⁄--|
---------------------------------------------|

CHORUS (also a lead to guitar solo)

|-------------------------|
|-------------------------|
|-------------------------|
|--10----10----/12--12----| x3

|--------------------------------------------------------
|--------------------------------------------------------
|--14--14--14--14--14--14--14--14--14--12h14--14--14--14-
|--------------------------------------------------------

----------------------|
----------------------|
--14-14-12⁄--7/--14⁄--|
----------------------|

same notes which are in the chorus!
|------------------------------------------------------------------|
|------------------------------------------------------------------|
|--------------------------------------------14-14-14-14--14-14-14-|
|-0--2--2--2-2-2-2-(/)5--5--5-5-2--0--0--0-0-----------------------|

CHORUS (B comes an octave higher but it doesn't really matter)

the END
|---------------------------------------------------------------------
|---------------------------------------------------------------------
|---------------------------------------------------------------------
|-10---10-10-10-10---10-12--12--12--10---10-10-10-10---10-12--12--12--

-------------------------------------------------|
-------------------------------------------------|
-------------------------------------------------|
--10---10-10-10-10---10-12--12--12--2~~~~~~------|

Тональность:

Это должно быть в ТОП-листе! - Топ-лист композиций



Назад
Рекомендуем посмотреть другие песни исполнителя «Oasis»:

  • Комменты Fb ()
  • Комменты ВК



Добавить в Избранное Браузера
Сохранить здесь Очистить


x

0


+
-

+
-

-

Авторизация





Зарегистрироваться

M

Дата и время

  • 22:50:18
     

Социальные ссылки


Наши приложения

  • Muzbank App Play Market
  • Muzbank Amazon App