MUZBANK


МУЗЫКАЛЬНО-ИНФОРМАЦИОННЫЙ БАНК





OOasis • Dont Look Back In Anger (аккорды и текст - chords & lyrics)


992

Print

Видео «Dont Look Back In Anger (Oasis)»

Видео клипы к песне подбираются автоматически сайтом youtube. Возможны некоторые несоответствия клипов песне.

↑ Спрятать рекламу ↑






C G Am E7 F G
Slip inside the eye of your mind don't you know you might find
C Am G
A better place to play

C G Am E7 F G
You say that you never been but all the things that you've seen
C Am G
Slowly fade away
F Fm C
So I start a revolution from my bed
F Fm C
Cos you said the brains I have went to my head
F Fm C
Step outside the summertime's in bloom
G G#/E7
Stand up beside the fire place take that look from off your face
Am G F G
Cos you ain't never gonna burn my heart out______________
C G Am E7 F G C Am G
So Sally can wait she knows it's too late as we're walking on by
C G Am E7 F G C
Her soul slides away but don't look back in anger I heard you say
SOLO:
E|----8----11------------------------------------------------|
A|---------------8----10-------------------------------------|
D|--------------------------8----10--------------------------|
G|-------------------------------------8----10---------------|
B|-------------------------------------------------8⁄11------|
E|---------------------------------------------------------8-|

E|---------------------------------------------------------|
A|------------------------------------------------10-----8-|
D|-------------------------------------10----8-------------|
G|--------------------------10----8------------------------|
B|---------------11----8-----------------------------------|
E|----11----8----------------------------------------------|

Same chords:
Take me to the place where you go where nobody knows
if it's nigth or day
Please don't put your life in the hands of a rock 'n roll band
Who'll throw it out away
Gonna start a revolutio from my bed
Cos you said the brains I have went to my head
Step outside the summertime's in bloom
Stand up beside the fire place take that look from off your face
Cos you ain't never gonna burn my heart out______________
So Sally can wait she knows it's too late as we're walking on by
Her soul slides away but don't look back in anger I heard you say
SOLO:
E|-------------------------------------------------------|
A|-------------------------------------------------------|
D|-------------------------------------------------------|
G|----10--10--10--10--9--9⁄10--9-------------------10--9-|
B|--------------------------------9--11--9--11--9--------|
E|-------------------------------------------------------|

E|----------------------------------------------11--9--9--11--------|
A|---------------------------------------10--9----------------9--10-|
D|--------------------------------10--9-----------------------------|
G|----10--10--10--10--9--9⁄10--9------------------------------------|
B|------------------------------------------------------------------|
E|------------------------------------------------------------------|

E|-----------------------------------------------------------------|
A|-----------------------------------------------------------------|
D|----9--10--------------------------------------------------------|
G|-----------9--10-----------------------------10--9--9--10--9--10-|
B|-----------------9--10----------------10--9----------------------|
E|------------------------9--10--10--9-----------------------------|

E|--------------------------------------------------------------------|
A|--------------------------------------------------------------------|
D|--------------------------------------------------------------------|
G|----9--9--10--9------------------------------------------10--10--10-|
B|---------------9--11--9--11--9--11--9--11--9--11--9--11-------------|
E|--------------------------------------------------------------------|

E|------------------------------------------------------------------|
A|------------------------------------------------------------------|
D|------------------10--9--9⁄10-------------------------------------|
G|----10--9--10--9---------------9--10--9--10--9--10--9--10--9---10-|
B|------------------------------------------------------------------|
E|------------------------------------------------------------------|

E|----------------------------------|
A|----------------------------------|
D|----------------------------------|
G|----9--10--10--10--10--10--10--10-|
B|----------------------------------|
E|----------------------------------|
So Sally can wait she knows it's too late as we're walking on by
Her soul slides away......
F
But don't look back in anger
Fm
Don't look back in anger
C G Am F Fm
I heard you say
C
At least not today

Тональность:

Это должно быть в ТОП-листе! - Топ-лист композиций



Назад
Рекомендуем посмотреть другие песни исполнителя «Oasis»:

  • Комменты Fb ()
  • Комменты ВК



Добавить в Избранное Браузера
Сохранить здесь Очистить


x

0


+
-

+
-

-

Авторизация





Зарегистрироваться

M

Дата и время

  • 03:27:41
     

Социальные ссылки


Наши приложения

  • Muzbank App Play Market
  • Muzbank Amazon App