MUZBANK


МУЗЫКАЛЬНО-ИНФОРМАЦИОННЫЙ БАНК





OOasis • Just Getting Older (аккорды и текст - chords & lyrics)


484

Print

Видео «Just Getting Older (Oasis)»

Видео клипы к песне подбираются автоматически сайтом youtube. Возможны некоторые несоответствия клипов песне.

↑ Спрятать рекламу ↑






Intro
A A7 D Dm
A E D A

A A7
(1)it's nine o'clock, i'm getting tired i'm
(2)i'm staying in, i can't be bothered
(3)i'm halfway up to the bottom

D
sick of all my records and the
making conversation with the
of another bottle of my

Dm
clothes i bought today
friends that i don't know
next best favourite friend

A E D A (3x/2 outro)
am i cracking up, or just getting older?

solo
A Amaj7 A7 F#m
----------------|----------------|----------------|----------------|
----------------|----------------|----------------|----------------|
----------------|----------------|----------------|----------------|
---7s9-9s7------|---7s9--9s12-11-|-5-----11s12s11-|-7--------------|
----------------|----------------|----------------|----------------|
----------------|----------------|----------------|----------------|

F E G/D D A
----------------|----------------|----------------|-0--------------|
----------------|--------------0-|-3------0-3-0-3-|-2--------------|
----------------|--------------0-|-2------0-2-0-2-|-2--------------|
-10p9---7-------|-----2--------0-|-0------0-0-0-0-|-2--------------|
-------------8--|-----2----------|----------------|-0--------------|
----------------|-0---0----------|----------------|----------------|

D A (A7)
and i bet that this is how life turns out when you're finally grown
D
and you know if this my life i'll sit around all day and i'll

Bm C#m D E (E7)
moan

Outro
E
you're not cracking up
D A
you're just getting older
E
we're not cracking up
D A
we're just getting older

D A
-12-10-8----7----7-8-8s9--
---------10---10----------
--------------------------
--------------------------
--------------------------
--------------------------

Тональность:

Это должно быть в ТОП-листе! - Топ-лист композиций



Назад
Рекомендуем посмотреть другие песни исполнителя «Oasis»:

  • Комменты Fb ()
  • Комменты ВК



Добавить в Избранное Браузера
Сохранить здесь Очистить


x

0


+
-

+
-

-

Авторизация





Зарегистрироваться

M

Дата и время

  • 23:41:19
     

Социальные ссылки


Наши приложения

  • Muzbank App Play Market
  • Muzbank Amazon App