MUZBANK


МУЗЫКАЛЬНО-ИНФОРМАЦИОННЫЙ БАНК





OOasis • Live Forever (аккорды и текст - chords & lyrics)


1078

Print

Видео «Live Forever (Oasis)»

Видео клипы к песне подбираются автоматически сайтом youtube. Возможны некоторые несоответствия клипов песне.

↑ Спрятать рекламу ↑





Intro: Drums


Verse 1: (0:12)

G D
Maybe, I don't really wanna know
Am7
How your garden grows
C D
Cos I just wanna fly
G D
Lately, did you ever feel the pain
Am7
In the morning rain
C D
As it soaks you to the bone


Chorus 1: (0:34)

Em7 D
Maybe I just wanna fly
Am7
Wanna live but don't wanna die
C
Maybe I just wanna breath
D Em7
Maybe I just don't believe
D
Maybe you're the same as me
Am7
We see things they'll never see
Fsus4
You and I are gonna live forever


[ Lead Guitar plays this after Fsus4 ]

E-----3------|
B--1----1----|
G---------0--|
D-3----------|
A------------|


Verse 2: (0:57) [ Same as Verse 1 ]

Maybe, I don't really wanna know
How your garden grows
cos I just wanna fly
Lately, did you ever feel the pain
In the morning rain
As it soaks you to the bone


Chorus 2: (1:19) [ Same as Chorus 1 ]

Maybe I will never be
All the things that I wanna be
but now it's not the time to cry
Now it's time to find out why
I think you're the same as me
We see things they'll never see
You and I we're gonna live forever


Solo: (1:42)

G D Am7 C D G

B----------------------------------------------------------------------|
G------12b--14b14-12-12h14---14b14-12--12h14---------------------------|
D-12h14-------------------------------14---14---12h14h12---------------|
A-----------------------------------------------------12h14h12--10b10b-|

D Am7 C D Em
B--------------------------------------------------(15)^17b17b-|
G------------12h14---14b14-12--12h14---------------------------|
D-12-12-12h14-----------------14---14---12h14-14-12------------|
A--------------------------------------------------------------|

D Am7 C D
B-17h15--15------------------------------------------------------------|
G------16--16h14h16--14----14b14-12h14h12------------12-14b14b14h12-14-|
D------------------17--17----------------14b-----12h14-----------------|
A--------------------------------------------12h14---------------------|

Em D Am7 Fsus4
B(12)-15h17b17b--17h15--15--------------------------------------------|
G---------------------16--16h14h16--14--14b14-12h14h12------------12b-|
D---------------------------------17--17--------------14b-----12h14---|
A---------------------------------------------------------12h14-------|

Fsus4
B----------------------------------|
G---------12h12-------14b14b14h12b-|
D-----12h14-------12h14------------|
A-12h14-------12h14----------------|



Verse 3: (2:27)

G D
G---------14^16h14-------------------12----|
D----12h14----------------------12h14--14b-|
A------------------------------------------|
Maybe, I don't really wanna know

Am7 C D
G------------------------12h12----------------------------|
D-------------------12h14-----14-12h14------14h12---------|
A-----------------------------------------------10h12-10b-|
How your garden grows cos I just wanna fly

G D
G---------14^16h14---------------------12----|
D----12h14------------------------12h14--14b-|
A--------------------------------------------|
Lately, did you ever feel the pain

Am7 C D
G-----------------------12h12---------------------------|
D------------------12h14-----14-12h14----------12h14-12-|
A---------------------------------------------10--------|
In the morning rain as it soaks you to the bone



Chorus: (2:49)

Em7 D Am7
G---------------------------------------------------------------|
D-12h14b---------------12-12h14b-------------------12-12-12h14b-|
A---------------------------------------------------------------|
Maybe I just wanna fly Wanna live but don't wanna die

C D
B--------------12--------------------------------------|
G----------------14-----12-14-12-----------------------|
D------------------------------------------------------|
Maybe I just wanna breath Maybe I just don't believe

Em7 D Am7
B-12---------12h12---14h12b12----------------------------12----------|
G--14-----------------------14b14------------------12h14b--14b-------|
D--------------------------------------------------------------------|
Maybe you're the same as me We see things they'll never see

Fsus4
D----------------------------------------|
A------------------------------0-2h3h2-0-|
E----------------------------------------|
You and I are gonna live forever



Outro: (3:42)

Am Fsus4
E----0---------------------0---------------|
B---1-1-------------------1-1--------------|
G--2---------------------------------------| (x6)
D------------------------3-----------------|
A--------------------------------(2)3h2--0-|
We're gonna live forever


Am Fsus4 Am Fsus4 Am Fsus4 Am
B-----------------------5h5------5-----------------------------------------|
G----7b7-5--5--------5h7---7-5h7--7--------7b7-5h7h5-7b7-5h7-5---------7b7-|
D---------7b--------------------------------------------------7b-----------|
A-------------3-2-0-----------------3-2-0------------------------3-2-0-----|

Fsus4 Am Fsus4 Am Fsus4
B------------------------------------5h5----------5h5---------5h5--------|
G-5h7h5-7b7-5h7-5--------5h5-5-------5h5-5--------5h5-5-------5h5-5------|
D----------------7b---------7-7-5h7-----7-7-5h7b-----7-7-5h7-----7-7-5h7-|
A-------------------3-2-0------------------------------------------------|

Am Fsus4 Am Fsus4 Am
B-----------------5h5--------------5h5--------------5h5--------------------|
G-------5h5-------5h5-5------------5h5-5------------5h5-5----------9-------|
D----5h7---7-5h7-----7-7-5h7-5h7b-----7-7-5h7-5h7b-----7-7-5h7-7b---7-10-7-|
A-5h7----------------------------------------------------------------------|

Тональность:

Это должно быть в ТОП-листе! - Топ-лист композиций



Назад
Рекомендуем посмотреть другие песни исполнителя «Oasis»:

  • Комменты Fb ()
  • Комменты ВК



Добавить в Избранное Браузера
Сохранить здесь Очистить


x

0


+
-

+
-

-

Авторизация





Зарегистрироваться

M

Дата и время

  • 11:49:43
     

Социальные ссылки


Наши приложения

  • Muzbank App Play Market
  • Muzbank Amazon App