MUZBANK


МУЗЫКАЛЬНО-ИНФОРМАЦИОННЫЙ БАНК





OOasis • Roll With It (аккорды и текст - chords & lyrics)


486

Print

Видео «Roll With It (Oasis)»

Видео клипы к песне подбираются автоматически сайтом youtube. Возможны некоторые несоответствия клипов песне.

↑ Спрятать рекламу ↑





Intro:
|---|-----------|-----------|-----------|-----------|-----------|
|-4-|-----------|-----------|-----------|-----------|-----------|
|-R-|-5-5-5-5-5-|-3-3-3-3-3-|-----------|-----------|-5-5-5-5-5-|
|---|-----------|-----------|-3-3-3-3-3-|-3-3-3-3-3-|-----------|

|-----------|-----------------|-----------------|
|-----------|-----------------|-----------------|
|-3-3-3-3-3-|-----------------|-----------------|
|-----------|-5-5-5-5-5-5-5-5-|-5-5-5-5-5-5-5-5-|

Verse:
(x4) (x6)
|---------------|-------------|-------------|---------------|
|*-------------*|-------2---2-|-------------|*-------------*|
|*-------------*|-3---3-------|-------------|*-------------*|
|--3---3-3---3--|-------------|-5---5-5---5-|--3---3-3---3--|

(x2)
|--------------|------------------|-------------|
|*-------2---2-|-----------------*|-------------|
|*-3---3-------|-----------------*|-5---5-5---5-|
|--------------|-5-5-5-5-5-5-5-5--|-------------|

Chorus:
(x2) (x2)
|---------------|---------------|
|*-------------*|*-------------*|
|*-------------*|*-------------*| (x3)
|--1---1-1---1--|--3---3-3---3--|

(x2)
|---------------|-------------|-------------|---------|
|*-------------*|-------------|-------------|---------|
|*-------------*|-3---3-3---3-|-5---5-3---3-|-5-0-3-5-|
|--1---1-1---1--|-------------|-------------|---------|

Тональность:

Это должно быть в ТОП-листе! - Топ-лист композиций



Назад
Рекомендуем посмотреть другие песни исполнителя «Oasis»:

  • Комменты Fb ()
  • Комменты ВК



Добавить в Избранное Браузера
Сохранить здесь Очистить


x

0


+
-

+
-

-

Авторизация





Зарегистрироваться

M

Дата и время

  • 23:51:38
     

Социальные ссылки


Наши приложения

  • Muzbank App Play Market
  • Muzbank Amazon App