MUZBANK


МУЗЫКАЛЬНО-ИНФОРМАЦИОННЫЙ БАНК





OOasis • See The Sun (аккорды и текст - chords & lyrics)


493

Print

Видео «See The Sun (Oasis)»

Видео клипы к песне подбираются автоматически сайтом youtube. Возможны некоторые несоответствия клипов песне.

↑ Спрятать рекламу ↑





Intro:

E|--19---------19---------19-------|
B|-----19~~-------19~~-------19~~--| etc....

Second intro:

E|--------------------------------------------------------------------------|
B|-------------------------------9/7------------------------------------9/7-|
G|-7---------7---------7---------9/7--7---------7--------9b11-9p7---7---9/7-|
D|---9-7h9p7---9-7h9p7---9-7h9p7--------9-7h9p7---9-7hp9----------7---7-----|
A|--------------------------------------------------------------------------|
E|--------------------------------------------------------------------------|

Verse

A5 B5 A5 G5
Trying to press
D5 A5 B5 A5 G5 D5
What you might be feeling
A5 B5 A5 G5
Why supress
D5 A5 B5 A5 G5 D5
What you might be needing

You missed the moon on monday morning...

Carrys on with the same
E
I've been underwater
G/F# G5
Slept with your daughter
B5
She told me what your rulebook read
E
Been to the slaughter
G/F# G
Slept with your daughter
B5 A5
Won't you let me have my head
Bb5 B5
And then I can see the sun

SOLO:
E|--------------------------------------------------|
B|-------------------------------------10-----------|
G|-----------7---7-9b11-9p7---7---9b11----9-7-9-7---|
D|-------7h9---9------------9---9-----------------9-|
A|-5-7/9--------------------------------------------|
E|--------------------------------------------------|

E|---------------------------------------------------------|
B|-----------------7-7-------7-7------------------10-11-12-|
G|---------7-------7-7-------7-7-------9b11vvv-11----------|
D|-----7h9---9-7h9-----9-7h9-----9-7h9---------------------|
A|-7h9-----------------------------------------------------|
E|---------------------------------------------------------|

E|-12-12-12-10----10-12-12-10----10-12-12-10----------10----|
B|-------------12-------------12-------------12-10-12----12-|
G|----------------------------------------------------------|
D|----------------------------------------------------------|
A|----------------------------------------------------------|
E|----------------------------------------------------------|

E|-12-12-12-10----10-12-12-10----10-12-12-10----------------|
B|-------------12-------------12-------------12-10-12-10----|
G|-------------------------------------------------------11-|
D|----------------------------------------------------------|
A|----------------------------------------------------------|
E|----------------------------------------------------------|

E|-------------------------------------------------------|
B|-------------------------------------------------------| repeat for a bit and
G|-9-7---9-9-9-7---7-9-9-7---7-9-9-7-------7---9-9-9-7---| end up on fret 9 D
D|-----9---------9---------9---------9-7-9---9---------9-| string.
A|-------------------------------------------------------|
E|-------------------------------------------------------|

END:

E|----------------------------------|
B|-12-10----------------------------|
G|-------11-9-11-9-7-----------7b~~-|
D|-------------------9-----7h9------|
A|---------------------7h9----------|
E|----------------------------------|

Тональность:

Это должно быть в ТОП-листе! - Топ-лист композиций



Назад
Рекомендуем посмотреть другие песни исполнителя «Oasis»:

  • Комменты Fb ()
  • Комменты ВК



Добавить в Избранное Браузера
Сохранить здесь Очистить


x

0


+
-

+
-

-

Авторизация





Зарегистрироваться

M

Дата и время

  • 15:09:36
     

Социальные ссылки


Наши приложения

  • Muzbank App Play Market
  • Muzbank Amazon App