MUZBANK


МУЗЫКАЛЬНО-ИНФОРМАЦИОННЫЙ БАНК





OOasis • Sunday Morning Call (аккорды и текст - chords & lyrics)


581

Print

Видео «Sunday Morning Call (Oasis)»

Видео клипы к песне подбираются автоматически сайтом youtube. Возможны некоторые несоответствия клипов песне.

↑ Спрятать рекламу ↑





({Intro})

|Bb |Dm |

({Verse 1})
Bb Dm Bb Dm
Heres another ..... hitter banging........door
Bb Dm Bb
Dm
Slip your..... day that
couldn't..........more
D
But what for?


({Chorus})
G D Em C
And in your head.... feel.... not.... feel....
G D Fmaj7 |Em D|
And you take.... want.... don't.... free.
G D Em C G
You need.... time.... lost.... last.... more.
D Em C
And I'm not sure.... ever.... right.

|Dsus Cadd9 |A1 A2 |
But it's okay.
e---------------------------------------------------
B-------3------------3------------2-----------3-----
G----2-----2------0-----0------0-----0-----0-----0--
D-0-------------------------------------------------
A--------------3------------2-----------3-----------
E---------------------------------------------------

|Dsus Cadd9 |A1
It's allright.
e---------------------------------------
B-------3------------3------------2-----
G----2-----2------0-----0------0-----0--
D-0-------------------------------------
A--------------3------------2-----------
E---------------------------------------

({Verse 2})
as Verse 1

({Chorus})
as Chorus above

|Dsus Cadd9 |A1 A2 |
But it's okay.
e---------------------------------------------------
B-------3------------3------------2-----------3-----
G----2-----2------0-----0------0-----0-----0-----0--
D-0-------------------------------------------------
A--------------3------------2-----------3-----------
E---------------------------------------------------

|Dsus Cadd9 |A1
It's allright.
e---------------------------------------
B-------3------------3------------2-----
G----2-----2------0-----0------0-----0--
D-0-------------------------------------
A--------------3------------2-----------
E---------------------------------------


({Solo})
|G Fmaj7|G Bb|C Bb|C
Bb|
e---------------------------------------------------------------------------
B---------------------------------------------------6------------6----------
G-5b7--5b7--3---------------3-----3------------5b7-----5--4---5-----5--5p4--
D--------------5-------3h5-----5-----5p3--5---------------------------------
A-----------------3h5-------------------------------------------------------
E---------------------------------------------------------------------------

|G Fmaj7|G Bb|C Bb|C
Bb|
e---------------------------------------------------------------------------
B---------------------------------------------------6------------6----------
G-5b7--5b7--3---------------3-----3------------5b7-----5--4---5-----5--5p4--
D--------------5-------3h5-----5-----5p3--5---------------------------------
A-----------------3h5-------------------------------------------------------
E---------------------------------------------------------------------------

|G Fmaj7|G Bb|C Bb|C Bb|
e----------------
B----------------
G--5--4--5--6--7-
D----------------
A----------------
E----------------

({Chorus})
G D Em C
And in your head.... feel.... not.... feel....
G D Fmaj7 |Em D|
And you take.... want.... don't.... free.
G D Em C G
You need.... time.... lost.... last.... more.
D Em C
And I'm not sure.... ever.... right.
Fmaj7 C |G D|
If it'll ever ever ever work out right
Fmaj7 C |G |
Will it ever ever ever work out right

Тональность:

Это должно быть в ТОП-листе! - Топ-лист композиций



Назад
Рекомендуем посмотреть другие песни исполнителя «Oasis»:

  • Комменты Fb ()
  • Комменты ВК



Добавить в Избранное Браузера
Сохранить здесь Очистить


x

0


+
-

+
-

-

Авторизация





Зарегистрироваться

M

Дата и время

  • 07:52:02
     

Социальные ссылки


Наши приложения

  • Muzbank App Play Market
  • Muzbank Amazon App