MUZBANK


МУЗЫКАЛЬНО-ИНФОРМАЦИОННЫЙ БАНК





OOasis • Supersonic (аккорды и текст - chords & lyrics)


1077

Print

Видео «Supersonic (Oasis)»

Видео клипы к песне подбираются автоматически сайтом youtube. Возможны некоторые несоответствия клипов песне.

↑ Спрятать рекламу ↑






Intro:

E------0---------------| E------0----------------------|
B--------0-------------| B--------0--------------------|
G-----2----2-----2-----| G-----2----2-----2------------|
D---4---------4--2---1-| (x3) D---4---------4--2---------4b-|
A-4--------------0---2-| A-4--------------0--2-3b2h0---|
E----------------------| E-----------------------------|
(I need...)

Verse 1: (0:27)


Riff 1: Riff 2:

G--------------| E---7-------|
D-----------4b-| (*) B-----5-----| (**)
A--(2)-3b2h0---| G-------6---|
E--------------| D-----------|

[ Transitions between B and F#m ]


F#m A B (**)
I need to be myself
F#m A B (*)
I can be no one else
F#m A B (**)
I'm feeling supersonic give me gin & tonic
F#m A B
You can have it all, but how much do you want it
F#m A B **
You make me laugh
F#m A B (*)
Give me your autograph
F#m A B (**)
Can I ride with you in your BMW
F#m A B
You can sail with me in my yellow submarine


Pre-Chorus:

E
You need to find out 'cos no one's gonna tell you
F#m (**)
What I'm on about
E C#
You need to find a way for what you want to say
C#
But before tomorrow


Chorus: (1:25)

Riff 3: [ Lead Guitar during Chorus ]

D A E F#m
G-----------------------|
D------4-4---------4-4--|
A-0h2h4---4h2-0h2h4-----|
E---------------------2-|

D A
'Cos my friend said
E F#m
He'd take you home
D A
He sits in the corner
E F#m
All alone
D A E F#m
He lives under a waterfall
D A
Nobody can see him
E F#m (***)
Nobody could ever hear him call
D A E F#m
Nobody could ever hear him call


Solo: (***) [ Play this TWICE ]

D A E F#m D A E F#m
B---------------------------------------------17-14----------------------|
G--16b16-14--16-14-----14----------16b16-14--------16-14-----14h16-14-14-|
D-----------------14-16-16-14h(16)----------------------14h16------------|
A------------------------------------------------------------------------|


[ Rhythm Guitar plays F#m E C# then Lead Guitar plays (*) ]


Verse 2: (2:10) [ Same as Verse 1 ]

You need to be youself
You can be no one else
I know a girl called Elsa - She's into alka-seltza
She sniffs it through a cane On a supersonic train
And she makes me laugh
I've got her autograph
She done it with a doctor On a helicopter
She's sniffin' in a tissue - Selling the big issue


When she finds out
No ones's gonna tell her what I'm on about
You need to find a way for What you want to say
But before tomorrow


Cos my friend said he'd take you home
he sits in a corner all alone
He lives under a waterfall
Nobody can see him
Nobody can ever hear him call
Nobody can ever hear him call

[ Instead of playing Solo (***) play this twice ]

D A E F#m D A E F#m
B---------------------------------------------17-14----------------------|
G--16b16-14--16-14-----14----------16b16-14--------16-14-----14h16-14-14-|
D-----------------14-16-16-14h(16)----------------------14h16------------|
A------------------------------------------------------------------------|

D A E F#m D A E F#m
B--------------------------------------------------------------------------|
G--16b16-14--16-14---------14--------14--------14--16b16-14-16h16-14h16h14-|
D-----------------(16)14h16--16h14h16--16h14h16----------------------------|
A--------------------------------------------------------------------------|


Outro: (4:01)

D A E F#m D A E F#m
B------------------------------------------------------------------------|
G-14----14--14h16h14-14h16h14-14h16h14--14----14-14-16h14-16b16b16b14-14-|
D-14h16h14--14--------------------------14h16h14-------------------------|
A------------------------------------------------------------------------|

D A E F#m D A E F#m
B------------------------------------------------------------------------|
G-14----14--14h16h14-14h16h14-14h16h14--14----14-14-16h14-16b16b16b14-14-|
D-14h16h14--14--------------------------14h16h14-------------------------|
A------------------------------------------------------------------------|

D A E F#m D A E F#m D....
B-------------------------------------------------------------------------|
G-16b16-16h14-----14-16b16h14------16b16h14--16b16b16b16h14-14---16b16-14-|
D------------14h16--------------------------------------------------------|
A-------------------------------------------------------------------------|


[ Music fades ]

Тональность:

Это должно быть в ТОП-листе! - Топ-лист композиций



Назад
Рекомендуем посмотреть другие песни исполнителя «Oasis»:

  • Комменты Fb ()
  • Комменты ВК



Добавить в Избранное Браузера
Сохранить здесь Очистить


x

0


+
-

+
-

-

Авторизация





Зарегистрироваться

M

Дата и время

  • 13:03:44
     

Социальные ссылки


Наши приложения

  • Muzbank App Play Market
  • Muzbank Amazon App