MUZBANK


МУЗЫКАЛЬНО-ИНФОРМАЦИОННЫЙ БАНК





OOffspring • Bad Habit (аккорды и текст - chords & lyrics)


588

Print

Видео «Bad Habit (Offspring)»

Видео клипы к песне подбираются автоматически сайтом youtube. Возможны некоторые несоответствия клипов песне.

↑ Спрятать рекламу ↑





В самом начале  песни на басу играется такая вещица:
                    x6
G|--------2----------|--------0-----------|
D|-------------------|----------------2---|
A|----0--------------|--------------------|
E|-3-----------3h5-5-|-0--3--------0------|

Hey man you know I'm really okay
The gun in my hand will tell you the same
But when I'm in my car
Don't give me no crap
Cause the slightest thing and I just might snap


Intro:
E|-------------------|
B|-------------------|
G|---2---2-2---2-2---|
D|---2---2-2---2-2---|
A|---0---0-0---0-0---|
E|-------------------|


Verse:  X2
E|-------------------------|
B|-------------------------|
G|-----5-7--5--------5-----|
D|---7-5-7--5-7-5--7-5-7---|
A|---7-3-5--3-7-5--7-3-7---|
E|---5--------5-3--5---5---|

When I go driving I stay in my lane
But getting cut off makes me insane

Pre-chorus:
e|--------------------------------------|
B|--------------------------------------|
G|--------------------------------------|
D|---5-5-5-5--5-5-5-5--5-5-5-5--5-5-5-5-|
A|---5-5-5-5--5-5-5-5--5-5-5-5--5-5-5-5-|
E|---3-3-3-3--3-3-3-3--3-3-3-3--3-3-3-3-|

e|--------------------------------------|
B|--------------------------------------|
G|-9-9-9-9--9-9-9-9--9-9-9-9--9-9-9-9---|
D|-9-9-9-9--9-9-9-9--9-9-9-9--9-9-9-9---|
A|-7-7-7-7--7-7-7-7--7-7-7-7--7-7-7-7---|
E|--------------------------------------|

I open the glove box
Reach inside
I'm gonna wreck this fucker's ride
I guess I got a bad habit

Chorus:   X4
e|----------------------|
B|----------------------|
G|---2--9-10--5--7--9---|
D|---2--9-10--5--7--9---|
A|---0--7--8--3--5--7---|
E|----------------------|

And it ain't goin' away Yeah
I got a bad habit
And it ain't goin' away Yeah

End-chorus:   X2
e|------------------------------|
B|------------------------------|
G|---2--2-2-2-10---7--7-7-7-9---|
D|---2--2-2-2-10---7--7-7-7-9---|
A|---0--0-0-0--8---5--5-5-5-7---|
E|------------------------------|

End-chorus2(*=play 14X)
e|-----------|
B|----*------|
G|---9--(2)--|
D|---9--(2)--|
A|---7--(0)--|
E|-----------|

Verse:
Well they say the road's a dangerous place
If you flip me off I'm the danger you'll face

Pre-Chorus:
You drive on my ass
You're foot's on the gas
And your next breath is your last
Cause I got a bad habbit

Chorus
And it ain't goin' away Yeah
I got a bad habit
And it ain't goin' away Yeah

End-chorus:
End-chorus2:


 N.C.
Drivers are rude
Such attitudes
But when I show my piece
Complaints cease
Something's odd
I feel like I'm God
You stupid dumbshit goddam motherfucker


Bridge:  X4
e|-----------------------------------|
B|-----------------------------------|
G|---14-14-13-12-12-12--9-8-7--5-2---|
D|---14-14-13-12-12-12--9-8-7--5-2---|
A|---12-12-11-10-10-10--7-6-5--3-0---|
E|-----------------------------------|

Pre-chorus:
I open the glove box
Reach inside
I'm gonna wreck this fucker's ride

Chorus:
And it ain't goin' away Yeah
I got a bad habit
And it ain't goin' away Yeah


End-chorus:
End-chorus2

Тональность:

Это должно быть в ТОП-листе! - Топ-лист композиций



Назад
Рекомендуем посмотреть другие песни исполнителя «Offspring»:

  • Комменты Fb ()
  • Комменты ВК



Добавить в Избранное Браузера
Сохранить здесь Очистить


x

0


+
-

+
-

-

Авторизация





Зарегистрироваться

M

Дата и время

  • 00:31:07
     

Социальные ссылки


Наши приложения

  • Muzbank App Play Market
  • Muzbank Amazon App