MUZBANK


МУЗЫКАЛЬНО-ИНФОРМАЦИОННЫЙ БАНК





OOffspring • Come Out Swinging (аккорды и текст - chords & lyrics)


377

Print

Видео «Come Out Swinging (Offspring)»

Видео клипы к песне подбираются автоматически сайтом youtube. Возможны некоторые несоответствия клипов песне.

↑ Спрятать рекламу ↑





riff A:
d|---------------------------------------------|
A|---------------------------------------------|
F|-11---9-11---9-11-13-14-14---14-------14-13--|
C|-11---9-11---9-11-13-14-14---14-14-14-14-13--|
G|-9----7--9---7--9-11-12-12---12-14-14-12-11--|
D|--------------------------------12-12--------|

riff B:
d|---------------------------------------------|
A|---------------------------------------------|
F|-11-xxxx-11-xxxx-11-xx-11-xxxx-11-xxxx-11-xx-|
C|-11-xxxx-11-xxxx-11-xx-11-xxxx-11-xxxx-11-xx-|
G|-9--xxxx--9-xxxx--9-xx--9-xxxx--9-xxxx--9-xx-|
D|---------------------------------------------|

riff B?:
d|----------------------------|
A|----------------------------|
F|-11-xx-11-xx-11-11-11-11-11-|
C|-11-xx-11-xx-11-11-11-11-11-|
G|-9--xx--9-xx--9--9--9--9--9-|
D|----------------------------|

riff B??:
d|------------------------|
A|------------------------|
F|------------------------|
C|-11-xxxx-11-xxxx-11-xx--|
G|-11-xxxx-11-xxxx-11-xx--|
D|-9--xxxx--9-xxxx--9-xx--|


riff C:
d|-------------------------------------------------------------|
A|-------------------------------------------------------------|
F|----------------------------------------------------7-7--9-9-|
C|----------------------6-7-6-------------------------7-7--9-9-|
G|-999999-777777-999999-------7--999999-777777-999999-5-5--7-7-|
D|-------------------------------------------------------------|

riff D:
d|------------------------------------------------------|
A|------------------------------------------------------|
F|-11--9-11--11-11---------------------------7--7--9--9-|
C|-11--9-11--11-11-7--7-7--7-7--7/9--9-97--7-7--7--9--9-|
G|-9---7--9---9--9-7--7-7--7-7--7/9--9-97--7-5--5--7--7-|
D|-----------------5--5-5--5-5--5/7--7-75--5------------|

riff D?:
d|------------------------------------------------------|
A|------------------------------------------------------|
F|-11--9-11--11-11----------------------------4--2------|
C|-11--9-11--11-11-7--7-7--7-7--7/9--9-97--7-4--2--4--2-|
G|-9---7--9---9--9-7--7-7--7-7--7/9--9-97--7-2--0--4--2-|
D|-----------------5--5-5--5-5--5/7--7-75--5-------2--0-|

riff E:
d|-------------------------------------------------------------|
A|-------------------------------------------------------------|
F|---------------444444-444444----------------4---4---7-7--9-9-|
C|-444444-777777-444444-444444-444444-777777--4---4---7-7--9-9-|
G|-444444-777777-222222-222222-444444-777777--2---2---5-5--7-7-|
D|-222222-555555---------------222222-555555-------------------|

riff F:
d|------------------------|
A|------------------------|
F|-7---7---6---6---9---11-|
C|-7---7---6---6---9---11-|
G|-5---5---4---4---7----9-|
D|------------------------|

riff G:
d|-------------------------------|
A|-------------------------------|
F|-------------------------------|
C|----------------------6--7-6---|
G|-999999-777777-999999--------7-|
D|-------------------------------|

riff H: (каждый аккорд по 8 раз)
d|-------------------------|
A|-------------------------|
F|-11----7---------9-------|
C|-11----7----9----9----11-|
G|-9-----5----9----7----11-|
D|------------7----------9-|

outro:
d|--------------------------------------|
A|--------------------------------------|
F|-7---7-7---7-9---9--------------------|
C|-7---7-7---7-9---9-9-7-9-7-9-7-4-2-4:-|
G|-5---5-5---5-7---7-9-7-9-7-9-7-4-2-4:-|
D|-------------------7-5-7-5-7-5-2-0-2:-|

Структура песни:

riff A x2
riff B x2
riff B?

riff C
riff D
riff D?
riff A x2

riff E
riff D x3
riff F

riff G
riff H x4
riff B?? x3

riff D x3
outro

You brace and hold it all inside
It?s more than you can stand
No one around even tries
Tries to understand

Don?t turn away, don?t turn away
Come out swinging
Come out alone
They?re in your way
But as long as you?re swinging
Strong then you?ll get by

Your pacing?s wearing out a line
Right beside your bed
The scene replays a million times
Stuck inside your head

And though you stand in place
Your mind escapes
Read between the lies
Smile?s on your face
You fake like you?re ok

Don?t turn away, don?t turn away
Come out swinging
Out on your own
They?re in your way
You may be stinging
But you?ll get by
Don?t turn away, don?t turn away
Come out swinging
Never alone again
The pain inside can guide your way

Midnight, no sleep
Inside, you scream to
No one, hears you fall
Daylight, prove me today
One more try

Don?t turn away, don?t turn
Come out swinging
Come out alone
They?re in your way
You may be stinging
But you?ll get by
Don?t turn away, don?t turn away
Come out swinging
Never alone again
Pain inside
Leads you through so you?ll get by

Тональность:

Это должно быть в ТОП-листе! - Топ-лист композиций



Назад
Рекомендуем посмотреть другие песни исполнителя «Offspring»:

  • Комменты Fb ()
  • Комменты ВК



Добавить в Избранное Браузера
Сохранить здесь Очистить


x

0


+
-

+
-

-

Авторизация





Зарегистрироваться

M

Дата и время

  • 00:22:36
     

Социальные ссылки


Наши приложения

  • Muzbank App Play Market
  • Muzbank Amazon App